Song name
# A B C D E F G H I J K L M N O P Q R S T U V W X Y Z

My Ticket Home - Surroundings tab

HOY PAULO ETO NA!
Tuning: Drop B (B-F#-B-E-G#-C#)

* = Palm mute
~ = Let ring
b^ = Bend down

Intro:
C#||------------------------------------------------------|
G#||------------------------------------------------------|
 E||------------------------------------------------------|
 B||------------------------------------------------------|
F#||------------------------------------------------------|
 B||------------------------------------------------------|

C#||------------------------------------------------------|
G#||------------------------------------------------------|
 E||------------------------------------------------------|
 B||----------------------------------1--------1----------|2x
F#||----------------------------------1--------1----------|
 B||-0-0-0-12--0--0-0-0-0--0-0--0-0-0-1--0-0-0-1--0-0-0-0-|
     * * *        * * *    *    * * *    * * *    * * * *

C#||------------------------------------------------------|
G#||------------------------------------------------------|
 E||------------------------------------------------------|
 B||------------------------------------------------------|2x
F#||--------------------------------------------1---1-----|
 B||-00-0-0-0---------00-0-0-0-0-0-0-0--------0-1-0-1-----|
     ** * * *         ** * * * * * * *        *   *

Verse 1: do 1,2,3,4,5
C#||----------------------------------------------------------|1/3
G#||----------------------------------------------------------|
 E||----------------------------------------------------------|
 B||----------------------------------------------------------|
F#||----------------------------------------------------------|
 B||-00-0-0---00-0-0--0-0-0-0-0-0--00-0-0---00-0-0--2-00-0-4b-|
     ** * *   ** * *  * * * * * *  ** * *   ** * *    ** *
C#||----------------------------------------------------------|2/4 |----|5
G#||----------------------------------------------------------|    |----|
 E||----------------------------------------------------------|    |----|
 B||----------------------------------------------------------|    |-0~-|
F#||----------------------------------------------------------|    |-0~-|
 B||-00-0-0---00-0-0--0-0-0-0-0-0--00-0-0---00-0-0--2-00-0-1b-|    |-0~-|
     ** * *   ** * *  * * * * * *  ** * *   ** * *    

Chorus:
C#||-----------------------------------|
G#||-----------------------------------|
 E||-----------------------------------|
 B||-8-8888888--555550-0000000--333333-|2x
F#||-8-8888888--555550-0000000--333333-|
 B||-8-8888888--555550-0000000--333333-|

C#||-----------------------------------------------------------------|
G#||-----------------------------------------------------------------|
 E||-----------------------------------------------------------------|last
 B||-8-88-88-5-55-55-0-00-00-3-33-33-8-88-88-5-55-55-0-00-00-0-00-00-|part
F#||-8-88-88-5-55-55-0-00-00-3-33-33-8-88-88-5-55-55-0-00-00-0-00-00-|
 B||-8-88-88-5-55-55-0-00-00-3-33-33-8-88-88-5-55-55-0-00-00-0-00-00-|

Verse 2:
C#||---------------------------------------|
G#||---------------------------------------|
 E||---------------------------------------|
 B||-00-0000---00-0000---00-0000---00-0000-|
F#||-00-0000---00-0000---00-0000---00-0000-|
 B||-11-1111---11-1111---11-1111---11-1111-|

Singing Part: I cannot stand alone but maybe I can make a difference in this world..
C#||---------------------------------------------------------------------|
G#||---------------------------------------------------------------------|
 E||---------------------------------------------------------------------|
 B||-0000000000000000-3333333333333333-8888888888888888-5555555555555555-|2x
F#||-0000000000000000-3333333333333333-8888888888888888-5555555555555555-|
 B||-0000000000000000-3333333333333333-8888888888888888-5555555555555555-|

Clean part
Repeat Chorus

||----||
||----||
||----||
||-0~-||then breakdown..
||-0~-||
||-0~-||

         Breakdown
C#||----|-----------------------------------------------|
G#||----|-----------------------------------------------|
 E||----|-----------------------------------------------|
 B||0000|-000-0-000-0-0-0---00---000-0-000-0-0-0--------|
F#||0000|-000-0-000-0-0-0---00---000-0-000-0-0-0--------|
 B||0000|-111-1-111-1-1-1---11---111-1-111-1-1-1--4321~-|
    ****  *** * *** * *     **   *** * *** * *

C#||-----------------------------------------------|
G#||-----------------------------------------------|
 E||-----------------------------------------------|
 B||-000-0-000-0-0-0---00---000-0-000-0-0-0--------|
F#||-000-0-000-0-0-0---00---000-0-000-0-0-0--------|
 B||-111-1-111-1-1-1---11---111-1-111-1-1-1--4321~-|
     *** * *** * *      *   *** * *** * *
Tap to rate this tab
 
# A B C D E F G H I J K L M N O P Q R S T U V W X Y Z