Song name
# A B C D E F G H I J K L M N O P Q R S T U V W X Y Z

My Ticket Home - Hot Soap tab

-------------------------------------------------------------------------------
                             HOT SOAP - MY TICKET HOME
-------------------------------------------------------------------------------
Tabbed by: mgallucci

Tuning:A# F A# D# G C

 |Intro| Place finger immediately after said fret for harmonics
 |------------------------------------------------------|
 |----------------------------------------------------3-|
 |----------------------------------------------------3-|
 |--1-1-1-----1-----1--------1-1-1-----1--------------3-|
 |--1-1-1-----1-----1--------1-1-1-----1----------------|
 |--1-1-1-3-3-1-3-3-1-3-3-2--1-1-1-3-3-1-3--5-4-3-2-1---|
          + +   + +   + + +        + +   +  + + + + + +
                                            harmonic slide
 |Hook|
 |-------------------------|
 |-------------------------|
 |-------------------------|
 |-1-1-1-----1-----1-------| x4
 |-1-1-1-----1-----1-------|
 |-1-1-1-3-3-1-3-3-1-3-3-2-|
         + +   + +   + + +

 |Verse| Rythm
 |-----------------------------------------------------------|
 |-----------------------------------------------------------|
 |-----------------------------------------------------------|
 |-x-x-x-x-x-----------------x-x-x-x-x-x-x-x-----------------|
 |-x-x-x-x-x-----------------x-x-x-x-x-x-x-x-----------------|
 |-x-x-x-x-x-5-5-5-5-5-5-5-5-x-x-x-x-x-x-x-x-5-5-5-5-4-3-2-1-|
             + + + + + + + +                 + + + + + + + +
                                              harmonic Slide

 |Hook| x1 


 |Verse| Rythm
 |-----------------------------------------------------------|
 |-----------------------------------------------------------|
 |-----------------------------------------------------------|
 |-x-x-x-x-x-----------------x-x-x-x-x-x-x-x-----------------| x2
 |-x-x-x-x-x-----------------x-x-x-x-x-x-x-x-----------------|
 |-x-x-x-x-x-5-5-5-5-5-5-5-5-x-x-x-x-x-x-x-x-5-5-5-5-4-3-2-1-|
             + + + + + + + +                 + + + + + + + +
                                              harmonic Slide

 |Verse| Lead
 |--------------------------------------------------------------|
 |-3-3-3-3-3-3-3-3-3-3-3-3-3-3-3--4-4-4-4-4-4-4-4-4-4-4-4-4-4-4-|
 |--------------------------------------------------------------|
 |--------------------------------------------------------------|
 |--------------------------------------------------------------|
 |--------------------------------------------------------------|
  Wah swell throughout
 

  Lead cont.
 |------------------------------------------------5-5-5-5-5-5-5-|
 |-3-3-3-3-3-3-3-3-3-3-3-3-3-3-3--4-4-4-4-4-4-4-4-4-4-4-4-4-4-4-|
 |--------------------------------------------------------------|
 |--------------------------------------------------------------|
 |--------------------------------------------------------------|
 |--------------------------------------------------------------|
  Wah swell throughout                              


 |Prechorus|
 |-----------------------------0--------------------------------------------0----------------|
 |-----------------------------0--------------------------------------------0----------------|
 |-------------5---------------0--8-8-8-8-------------------5---------------0--8-8-8-8-------|
 |-5-5-5-5-5-5-----5-5-5-5-5-5----7-7-7-7--4-4-3-5-5-5-5-5-5-------------------7-7-7-7-3-3-3-|
 |-5-5-5-5-5-5-----5-5-5-5-5-5----6-6-6-6--4-4-3-5-5-5-5-5-5-------------------6-6-6-6-3-3-3-|
 |-5-5-5-5-5-5-----5-5-5-5-5-5-------------4-4-3-5-5-5-5-5-5----5-5-5-5-5-5------------3-3-3-|
               +                                            +

 |Chorus|
 |-----------------------------------------------------------------------------------|
 |-----3~---------------------------------------3~-----------------------------------|
 |-----2~---------------------------------------2~-----------------------------------|
 |-----0~---7-7-7-7-7-7-7-7-7-7-7-7-7-7-7-7-----0~---3-3-3-3-3-3-3-3-3-1-1-1-1-1-1-1-| x2
 |-----0~---3-3-3-3-3-3-3-3-3-3-3-3-3-3-3-3-----0~---3-3-3-3-3-3-3-3-3-1-1-1-1-1-1-1-|
 |-0~--0~---3-3-3-3-3-3-3-3-3-3-3-3-3-3-3-3-0~--0~---3-3-3-3-3-3-3-3-3-1-1-1-1-1-1-1-|
      

 |Hook|

 |Verse| x2

 |Prechorus|

 |Chorus|

 |Bridge| Guitar same as verse
 
 |Chorus|

 |Outro Hook|
 |-------------------------|
 |-------------------------|
 |-------------------------|
 |-1-1-1-----1-----1-------| x4
 |-1-1-1-----1-----1-------|
 |-1-1-1-3-3-1-3-3-1-3-3-2-|
         + +   + +   + + +
 
 |---------------------------------|
 |-3~~~~~~~------------------------|
 |-2~~~~~~~------------------------|
 |-0~~~~~~~------------------------|
 |-0~~~~~~~------------------------|
 |-0~~~~~~~------------------------|
   Ring out     



************************************

| +   natural harmonic 
| \   slide down
| h   hammer-on
| p   pull-off
| ~   vibrato
| +   harmonic
| x   Mute note
| b   Bend
| pb  Pre-bend
| br  Bend release
| pbr Pre-bend release
| brb Bend release bend

************************************
Tap to rate this tab
# A B C D E F G H I J K L M N O P Q R S T U V W X Y Z