Song name
# A B C D E F G H I J K L M N O P Q R S T U V W X Y Z

My Vitriol - Its So Damn Easy tab

----------------------------------------------------------------------------
IT'S SO DAMN EASY - My Vitriol
----------------------------------------------------------------------------
Tabbed by: Luke Rounda
Email: luke@notus.com

Standard Tuning (E A D G B e)

I've tried to show the rhythm chords above the lead parts written in tab.

There's a lot of doubling going on in this song (ie. the lead guitar is
reinforcing Som's vocal melody a lot).

Most of it is pretty simple to do; just pick out the root note of the chord
being played and drone it an octave higher with lots of chorus, phaser and
delay. Easier said than done eh? Well, this is a pretty good start I think.
It's all the main bits. What isn't shown, make up. It'll sound fine.


 intro (approximate)
e|-----------------------------------------------------------------------|
B|---------------------------------<5>---------<5>-----------------------|
G|------------------------------------<5>---<5>--------------------------|
D|--------------------------------------(<5>)----------------------------|
A|-----------------------------------------------------------------------|
E|-<12>-<12>-<12>-<12>-<12>-<12>-----------------------------------------|
   trem-picked


 riff #1
  F5                          A5
e|-----------------------------------------------------------------------|
B|-----------------------------------------------------------------------|
G|-2-2-0-2//9-0h2-2-2-0-2//9-/4-4-4-4b5-0-4-4-4-4h5p4-0------------------|
D|-----------------------------------------------------------------------|
A|-----------------------------------------------------------------------|
E|-----------------------------------------------------------------------|

 riff #2
    C5*                          D5      F5
e|--7-----7-----------------------------------| "And none of us are gone,
B|----8-----8----8--------------(7)-----(10)--|  you're in my heart
G|------9-----9----9-------------7-------10---|         and my..."
D|-------------------------------7-------10---|
A|-------------------------------5-------8----|
E|--------------------------------------------|
    ^ with heavy chorus and/or phaser

   A            G          F
 |-----1-0---------0------(1)-(0)----| "...h-e-e-e-e-e-e-ead,
 |---------(0)-------0----(1)--0-----|         I'm here"
 |-2-2----------4----------2---0-----|
 |-2-2----------5----------3---3-----|
 |-0------------5----------3--(3)----|
 |--------------3----------1--(1)----|  


 verse rhythm
 |-----------------------------------------------------------------------|
 |-------(1-0----)--------(1-0----)--------------------------------------|
 |-2-2-2-(----0--)--2-2-2-(----0--)--------------------------------------|
 |-2-2-2-(------2)--2-2-2-(------2)--3-3-3---3-3-3-3---------------------|
 |-0-0-0------------0-0-0------------3-3-3---3-3-3-3---------------------|
 |-----------------------------------1-1-1-0h1-1-1-0---------------------|
  PM....            .....            .................

 verse lead
 |-----------------------------------------------------------------------|
 |-----------------------------------------------------------------------|
 |---/5-4-------------/5-4-----------------------------------------------|
 |--------5--7-------------5--7------------------------------------------|
 |-0--------(0)-----0--------(0)-----------------------------------------|
 |-----------------------------------------------------------------------|


 instrumental break/bridge
 |-----------------------------------------------------------------------|
 |-----------------------------------------------------------------------|
 |---------14-12~~~~-----14-12~~~----------------------------------------|
 |-----------------------------12-12-12-<12><12><12>-pb15-15-15rb14-14-12|
 |-0h12-(12)-----//12-12-------------------------------------------------|
 |-----------------------------------------------------------------------|
   ^ HEAVY chorus w/ neck pickup

 This slides into Riff #1 and #2. Then:

 ending riff ("WAIT A SECOND!!! WAAAAIT A SECOND!!...")
    C5*
 |-----------------------------------------------------------------------|
 |-------0--0--------0--0------------------------------------------------|
 |\\5-5//4b-4b\\5-5//4b-4b--\\\\\\\\\\\\\\\\\\\\\\-----------------------|
 |\\x-x-------\\x-x---------\\\\\\\\\\\\\\\\\\\\\\-----------------------|
 |\\3-3-------\\3-3---------\\\\\\\\\\\\\\\\\\\\\\-----------------------|
 |-----------------------------------------------------------------------|

 * The C5 is played an octave lower than everything else. Set your whammy
   or pitchshifter for one octave down and release/toe back for the high
   part. This is a lot like "Ode to the Red Queen" from FINELINES.

| /  slide up
| \  slide down
| h  hammer-on
| p  pull-off
| ~  vibrato/let ring
| <> harmonic
| x  Mute note
| () ghost note (optional)
=============================================================================
Tap to rate this tab
# A B C D E F G H I J K L M N O P Q R S T U V W X Y Z