Song name
# A B C D E F G H I J K L M N O P Q R S T U V W X Y Z

Mya - Case Of The Ex Whatcha Gonna Do tab

Artist: Mya
Album: Fear Of Flying (2000)
Song: Case Of The Ex (Whatcha Gonna Do)

Tabbed by Ignacio



e|-------------------------------------------------|
B|-------------------------------------------------|
G|-------------------------------------------------|
D|--6----6666664----4444462----2222241----11111----|
A|--4----444444--------------------------------4---|
E|-------------5----5555574----4444452----222220---|

OR

e|-------------------------------------------------|
B|-------------------------------------------------|
G|--6----6666662----2222241----111112--------------|
D|--6----6666664----4444442----2222244----444442---|
A|-----------------------------------6----666664---|
E|-------------------------------------------------|


Well that's what I'm playing =)

Enjoy!
Questions? --> primitochileno@hotmail.com
Tap to rate this tab
 
# A B C D E F G H I J K L M N O P Q R S T U V W X Y Z