Song name
# A B C D E F G H I J K L M N O P Q R S T U V W X Y Z

Mychildren Mybride - Boris The Blade tab

My first tab, I have done this all by ear and it is not the whole song. But most people 
even learn the whole song. If you really want the rest of the tab, then email me: 
  I'll be glad to give it to you when im done.

----------------------------------------------------------------------------

Tuning: DADGBe

PM | Palm Mute
T  | Tremolo Pick
h  | Hammer on

I'm pretty sure both guitars play these part's. But they play different later, be sure 
look.


e-------------|
B-------------|
G-------------|
D--2---4---5--|
A--2---4---5--|
D--2---4---5--|


Tremolo Pick all notes except: 1
I dont know if this is palm muted or not.
   T T T T T T T
e-----------------|
B-----------------|
G-----------------|
D-----------------|
A-----------------|
D--4-5-7-5-4-5-1--|


Tremolo Pick ALL notes
   T T T  T T T  T T T
e-----------------------|
B-----------------------|
G-----------------------|
D-----------------------|
A-----------------------|
D--6-7-9--5-7-9--6-7-9--|


       PM PM      PM PM      PM PM
e----------------------------------|
B----------------------------------|
G----------------------------------|
D--2---2--2---4---4--4---5---5--5--|
A--2---2--2---4---4--4---5---5--5--|
D--2---2--2---4---4--4---5---5--5--|


Tremolo Pick all notes except: 1
I dont know if this is palm muted or not.
   T T T T T T T
e-----------------|
B-----------------|
G-----------------|
D-----------------|
A-----------------|
D--4-5-7-5-4-5-1--|


Tremolo Pick ALL notes
   T T T  T T T  T T T
e-----------------------|
B-----------------------|
G-----------------------|
D-----------------------|
A-----------------------|
D--6-7-9--5-7-9--6-7-9--|


Guitar 1
   PM PM            PM PM             PM PM
e--------------------------------------------------------------------------|
B--------------------------------------------------------------------------|
G--------------------------------------------------------------------------|
D--2--2---9--7--4---4--4---10--9--4---2--2---7--5--7------7---7-----7-7h9--|
A--2--2-------------4--4--------------2--2------------0-0---0---0-0--------|
D--2--2-------------4--4--------------2--2---------------------------------|


Guitar 2
You still do the two palm mutes, im just too lazy to put it on this one.
e-----------------------------------------------------|
B-----------------------------------------------------|
G-----------------------------------------------------|
D--6--4--1---7--6--1---4--2--4-------4---4-----4-4h6--|
A--------------------------------0-0---0---0-0--------|
D-----------------------------------------------------|


Thats all I got right now, I know its not too much, I'll be done with it all in maybe a 
or two.
Tap to rate this tab
 
# A B C D E F G H I J K L M N O P Q R S T U V W X Y Z