Song name
# A B C D E F G H I J K L M N O P Q R S T U V W X Y Z

Mygrain - Killing Time tab

This is my first tab so there might be some mistake, enjoy.
D|-15-15-15-15-15-15-15-15-19-19-19-19-14-14-14-14|
A|------------------------------------------------|
F|------------------------------------------------|
C|------------------------------------------------|
G|------------------------------------------------|
C|------------------------------------------------| X12

D|-15-15-15-15-15-15-15-15-15-19-19-19-19-14-14-14|
A|------------------------------------------------|
F|------------------------------------------------|
C|------------------------------------------------|
G|------------------------------------------------|
C|------------------------------------------------|
                                                Let sometime go bye
  Pick slide to 22
D|-/--------22-|
A|-/--------22-|
F|-------------|
C|-------------|
G|-------------|
C|-------------|

D|15-15-15-15-15-15-15-15-19-19-19-19-14-14-14-14|
A|-----------------------------------------------|
F|-----------------------------------------------|
C|-----------------------------------------------|
G|-----------------------------------------------|
C|-----------------------------------------------| X5

D|-15-15-15-15-15-15-15-15-19-19-19-19-14-14-14-14-15----------------19|
A|---------------------------------------------------------------------|
F|---------------------------------------------------------------------|
C|---------------------------------------------------------------------|
G|---------------------------------------------------------------------|
C|---------------------------------------------------------------------|

D|-19-19-19-14-14-14-14|
A|---------------------|
F|---------------------|
C|---------------------|
G|---------------------|
C|---------------------|

D|-15-15-15-15-15-15-15-15-19-19-19-19-14-14-14-14|
A|------------------------------------------------|
F|------------------------------------------------|
C|------------------------------------------------|
G|------------------------------------------------|
C|------------------------------------------------| X3

D|-15-15-15-15-15-15-15-15-15-19-19-19-19-14-14-14|
A|------------------------------------------------|
F|------------------------------------------------|
C|------------------------------------------------|
G|------------------------------------------------|
C|------------------------------------------------|

Like i said there might be mistakes here.
D|-------------------------------------------------------------------|
A|-------------------------------------------------------------------|
F|-------------------------------------------------------------------|
C|-------------------------------------------------------------------|
G|-------------------------------------------------------------------|
C|-0--0--0-0-0-0--0--0--0--0-0--0--0M-0--0--0-0--0--0--0--0--0-0-0-0-|
   .  .  . . . .  .  .  .  . .  .  .  .  .  . .  .  .  .  .  . . . .
D|---------------------------------------------------------------------|
A|---------------------------------------------------------------------|
F|---------------------------------------------------------------------|
C|---------------------------------------------------------------------|
G|---------------------------------------------------------------------|
C|-0--0--0--5-5-5-5-5-5-8-8-8-8-8-8--0--0--0-0-0-0--0--0--0--0-0--0--0M|
   .  .  .  . . . . . . . . . . . .  .  .  . . . .  .  .  .  . .  .  .
D|-----------------------------------------------------------------|
A|-----------------------------------------------------------------|
F|-----------------------------------------------------------------|
C|-----------------------------------------------------------------|
G|-----------------------------------------------------------------|
C|-0--0--0-0--0--0--0--0--0-0-0-0--0--0--0--5-5-5-5-5-5-8-8-8-8-8-8|
   .  .  . .  .  .  .  .  . . . .  .  .  .  . . . . . . . .
D|------------|-------------------------------------------------|
A|------------|-------------------------------------------------|
F|------------|-------------------------------------------------|
C|------------|-7--7--7--7--7--7--7--7--7--7--7--7--7--7--7--7--| Chorus   
G|------------|-5--5--5--5--5--5--5--5--5--5--5--5--5--5--5--5--|
C|-10-10-10-10|-------------------------------------------------|
                                                               
D|----------------------------------------------------------------------|
A|----------------------------------------------------------------------|
F|----------------------------------------------------------------------|
C|----------------------------------------------------------------------|
G|5--5--5--5--5--5--5--5--5--5--5--5--5--5--5--5--8--8--8--8--8--8--8--8|
C|5--5--5--5--5--5--5--5--5--5--5--5--5--5--5--5--8--8--8--8--8--8--8--8|

D|------------------------------------------------------------------------|
A|------------------------------------------------------------------------|
F|------------------------------------------------------------------------|
C|--------------------------5--5--5--5--5--5--5--5--5--5--5--5--5--5--5--5|
G|--8--8--8--8--8--8--8--8--3--3--3--3--3--3--3--3--3--3--3--3--3--3--3--3|
C|--8--8--8--8--8--8--8--8------------------------------------------------|

D|------------------------------------------------------------|
A|------------------------------------------------------------|
F|------------------------------------------------------------|
C|--7--7--7--7--7--7--7--7--7--7--7--7--7--7--7--7------------|
G|--5--5--5--5--5--5--5--5--5--5--5--5--5--5--5--5--5--5--5--5|
C|--------------------------------------------------5--5--5--5|

D|------------------------------------------------------------|
A|------------------------------------------------------------|
F|------------------------------------------------------------|
C|------------------------------------------------------------|
G|--5--5--5--5--5--5--5--5--5--5--5--5--8--8--8--8--8--8--8--8|
C|--5--5--5--5--5--5--5--5--5--5--5--5--8--8--8--8--8--8--8--8|

D|----------------------------------------------------|
A|----------------------------------------------------|
F|----------------------------------------------------|
C|--------------------------5--5--5--5--5--5--5--5----| Chorus end
G|--8--8--8--8--8--8--8--8--3--3--3--3--3--3--3--3----|
C|--8--8--8--8--8--8--8--8----------------------------|

D|------------------------------------------------------------------------|
A|------------------------------------------------------------------------|
F|------------------------------------------------------------------------|
C|-2---0---2---3-----------2---0---2---3-----------2---0---2---0----------|
G|-2---0---2---3-----------2---0---2---3-----------2---0---2---0----------|
C|-2---0---2---3---3-2-1-0-2---0---2---3---3-2-1-0-2---0---2---0---3-2-1-0|
                   . . . .                 . . . .                 . . . .
D|------------------------------------------------------------------------|
A|------------------------------------------------------------------------|
F|------------------------------------------------------------------------|
C|-------------------------2---0---2---3-----------2---0---2---3----------|
G|-------------------------2---0---2---3-----------2---0---2---3----------|
C|-5-5-5-5-5-5-8-8-8-8-8-8-2---0---2---3---3-2-1-0-2---0---2---3---3-2-1-0|
   . . . . . . . . . . . .                 . . . .                 . . . .
D|------------------------------------------------------------------|
A|------------------------------------------------------------------|
F|------------------------------------------------------------------|
C|-2---0---2---0-------------------------------------2---0---2---3--|
G|-2---0---2---0-------------------------------------2---0---2---3--|
C|-2---0---2---0---3-2-1-0-5-5-5-5-5-5-8-8-8-8-8-8M--2---0---2---3--|
                   . . . . . . . . . . . . . . . .
D|--------------------------------------------------------------------|
A|--------------------------------------------------------------------|
F|--------------------------------------------------------------------|
C|---------2---0---2---3-----------2---0---2---0----------------------|
G|---------2---0---2---3-----------2---0---2---0----------------------|
C|-3-2-1-0-2---0---2---3---3-2-1-0-2---0---2---0---3-2-1-0-5-5-5-5-5-5|
   . . . .                 . . . .                 . . . . . . . . . .
D|------------------------------------------------------------|
A|------------------------------------------------------------|
F|------------------------------------------------------------|
C|-------------2---0---2---3-----------2---0---2---3----------|
G|-------------2---0---2---3-----------2---0---2---3----------|
C|-8-8-8-8-8-8-2---0---2---3---3-2-1-0-2---0---2---3---3-2-1-0|
   . . . . . .                 . . . .                 . . . .
D|------------------------------------------------|
A|------------------------------------------------|
F|------------------------------------------------|
C|-2---0---2---0----------------------------------|
G|-2---0---2---0----------------------------------|
C|-2---0---2---0---3-2-1-0-5-5-5-5-5-5-8-8-8-8-8-8|
                   . . . . . . . . . . . . . . . .
D|-----------------------------------------------------------------------|
A|-----------------------------------------------------------------------|
F|-----------------------------------------------------------------------|
C|-0-h2--2--2--2--2--2--2--5--5--5--5--0--0--0--0--0-h3--3--3--3--3--3--3|
G|-0-h2--2--2--2--2--2--2--5--5--5--5--0--0--0--0--0-h3--3--3--3--3--3--3|
C|-0-h2--2--2--2--2--2--2--5--5--5--5--0--0--0--0--0-h3--3--3--3--3--3--3|
         .  .  .  .  .  .  .  .  .  .  .  .  .  .        .  .  .  .  .  .
D|------------------------------------------------------------------------|
A|------------------------------------------------------------------------|
F|------------------------------------------------------------------------|
C|--5--5--5--5--0--0--0--0--0-h2--2--2--2--2--2--2--5--5--5--5--0--0--0--0|
G|--5--5--5--5--0--0--0--0--0-h2--2--2--2--2--2--2--5--5--5--5--0--0--0--0|
C|--5--5--5--5--0--0--0--0--0-h2--2--2--2--2--2--2--5--5--5--5--0--0--0--0|
    .  .  .  .  .  .  .  .        .  .  .  .  .  .  .  .  .  .  .  .  .  .
D|-----------------------------------------------------------------------|
A|-----------------------------------------------------------------------|
F|-----------------------------------------------------------------------|
C|--0-h3--3--3--3--3--3--3--5--5--5--5--0--0----0-h2--2--2--2--2--2--2--5|
G|--0-h3--3--3--3--3--3--3--5--5--5--5--0--0-3b-0-h2--2--2--2--2--2--2--5|
C|--0-h3--3--3--3--3--3--3--5--5--5--5--0--0----0-h2--2--2--2--2--2--2--5|
          .  .  .  .  .  .  .  .  .  .  .  . NH       .  .  .  .  .  .  .
D|---------------------------------------------------------------------|
A|---------------------------------------------------------------------|
F|---------------------------------------------------------------------|
C|--5--5--5--0--0--0--0--0-h3--3--3--3--3--3--3--5--5--5--5--0--0--0--0|
G|--5--5--5--0--0--0--0--0-h3--3--3--3--3--3--3--5--5--5--5--0--0--0--0|
C|--5--5--5--0--0--0--0--0-h3--3--3--3--3--3--3--5--5--5--5--0--0--0--0|
    .  .  .  .  .  .  .        .  .  .  .  .  .  .  .  .  .  .  .  .  .
D|------------------------------------------------------------------------|
A|------------------------------------------------------------------------|
F|------------------------------------------------------------------------|
C|--0-h2--2--2--2--2--2--2--5--5--5--5--0--0--0--0--0-h3--3--3--3--3--3--3|
G|--0-h2--2--2--2--2--2--2--5--5--5--5--0--0--0--0--0-h3--3--3--3--3--3--3|
C|--0-h2--2--2--2--2--2--2--5--5--5--5--0--0--0--0--0-h3--3--3--3--3--3--3|
          .  .  .  .  .  .  .  .  .  .  .  .  .  .        .  .  .  .  .  .
D|---------------------------------------------------------------|
A|---------------------------------------------------------------|
F|---------------------------------------------------------------|
C|--5--5--5--5--0--0--0--0---------------------------------------|
G|--5--5--5--5--0--0--0--0---------------------------------------|
C|--5--5--5--5--0--0--0--0--0--2--2--2--2--2--2--2--2--5--5--5--5|
    .  .  .  .  .  .  .  .
D|------------------------------------------------------------|
A|------------------------------------------------------------|
F|------------------------------------------------------------|
C|------------------------------------------------------------|
G|------------------------------------------------------------|
C|--0--0--0--0--3--3--3--3--3--3--3--3--5--5--5--5--0--0--0--0|

D|------------------------------------------------------------------------|
A|------------------------------------------------------------------------|
F|------------------------------------------------------------------------|
C|------------------------------------------------------------------------|
G|------------------------------------------------------------------------|
C|--2--2--2--2--2--2--2--2--5--5--5--5--0--0--0--0--3--3--3--3--3--3--3--3|

D|------------------------------------------------------------|
A|------------------------------------------------------------|
F|------------------------------------------------------------|
C|------------------------------------------------------------|
G|------------------------------------------------------------|
C|--5--5--5--5--0--0--0--0--2--2--2--2--2--2--2--2--5--5--5--5|

D|------------------------------------|
A|------------------------------------|
F|------------------------------------|
C|--------------3--3--3--3--3--3--3--3|
G|--------------3--3--3--3--3--3--3--3|
C|--0--0--0--0--3--3--3--3--3--3--3--3|
                .  .  .  .  .  .  .  .
D|-15-15-15-15-15-15-15-15-19-19-19-19-14-14-14-14|
A|------------------------------------------------|
F|------------------------------------------------|
C|------------------------------------------------|
G|------------------------------------------------|
C|------------------------------------------------| X8

D|-15-15-15-15-15-15-15-15-19-19-19-19-14-14-14|
A|---------------------------------------------|
F|---------------------------------------------|
C|---------------------------------------------|
G|---------------------------------------------|
C|---------------------------------------------|

Chorus X2

D|----------------------------------------------------|
A|----------------------------------------------------|
F|----------------------------------------------------|
C|----------------------------------------------------|
G|----------------------------------------------------|
C|-0--0--0-0-0-0--0--0--0--0-0--0--0M-0--0--0-0--0--0-| X4 

Please rate and keep rockin.




Tap to rate this tab
# A B C D E F G H I J K L M N O P Q R S T U V W X Y Z