Song name
# A B C D E F G H I J K L M N O P Q R S T U V W X Y Z

Mygrain - Cold Reflection tab

Part1  fast picking here
|-----------------------------------------------------------------------|
|-----------------------------------------------------------------------|
|-0-0-8-8-5-5-8-8-0-0-8-8-5-5-8-8-0-0-8-8-5-5-8-8-0-0-8-8-5-5-8-8-0-0-7-|
|-----------------------------------------------------------------------|
|-----------------------------------------------------------------------|
|-----------------------------------------------------------------------|

|----------------------------------------------------------|
|----------------------------------------------------------|
|7-5-5-7-7-0-0-7-7-5-5-7-7-0-0-7-7-5-5-7-7-0-0-7-7-5-5-7-7-|
|----------------------------------------------------------|
|----------------------------------------------------------|
|----------------------------------------------------------| 4x
Part 2
|---------------------------------------------------------------------|
|---------------------------------------------------------------------|
|---------------------------------------------------------------------|
|-6--6--6--6--6--6--6--8--5\------------------------------------------|
|-8--8--8--8--8--8--8--10-7\0--------0--0--------0--0---------------0-|
|---------------------------0--0-0-0-0--0--0-0-0-0--0--0-0-0--0-0-0-0-|
                            .  . . . .  .  . . . .  .  . . .  . . . .
|---------------------------------------------------------------------|
|---------------------------------------------------------------------|
|---------------------------------------------------------------------|
|-6--6--6--6--6--6--6--3--5\------------------------------------------|
|-8--8--8--8--8--8--8--5--7\0--------0--0--------0--0---------------0-|
|---------------------------0--0-0-0-0--0--0-0-0-0--0--0-0-0--0-0-0-0-|
                            .  . . . .  .  . . . .  .  . . .  . . . .

|---------------------------------------------------------------------|
|---------------------------------------------------------------------|
|---------------------------------------------------------------------|
|-6--6--6--6--6--6--6--8--5\------------------------------------------|
|-8--8--8--8--8--8--8--10-7\0--------0--0--------0--0---------------0-|
|---------------------------0--0-0-0-0--0--0-0-0-0--0--0-0-0--0-0-0-0-|
                            .  . . . .  .  . . . .  .  . . .  . . . .
|---------------------------|
|---------------------------|
|---------------------------|
|-6--6--6--6--6--6--6--3--5\|
|-8--8--8--8--8--8--8--5--7\|
|---------------------------|
Part 3                             
|-------------------------------------------|
|-------------------------------------------|
|-------------------------------------------|
|--6--5--6----6--5--6----6--5--6----6--5--6-|
|--8--7--8----8--7--8----8--7--8----8--7--8-|
|0----------0----------0----------0---------|
 .          .          .          .           Part 3 4x
|----------------------------------------|
|----------------------------------------|
|----------------------------------------|
|---3--5--3---3--5--3---3--5--3---3--5--3|
|---5--7--5---5--7--5---5--7--5---5--7--5|
|-0---------0---------0---------0--------|
  .         .         .         .

Part 2


Part 4
|----------------------------------------|
|----------------------------------------|
|----------------------------------------|
|----------------------------------------|
|-------0--0--------0--0---------------0-|
|-0-0-0-0--0--0-0-0-0--0--0-0-0--0-0-0-0-|
  . . . .  .  . . . .  .  . . .  . . . .
Part 5
|----------------------------------------------------|
|----------------------------------------------------|
|----------------------------------------------------|
|-8--------------------------------------------------|
|-8--------------------5----5----5----5---5---5-----5|
|-8----------------5-5-5--5-5--5-5--5-5-5-5-5-5-5-5-5|
                   . .    .    .    .   .   .   . .
|-------------------------|-------------------|
|-------------------------|-------------------|
|-------------------------|-------------------|
|------------------------8|-------------------|
|----5----5----5---5---5-8|-------------------|
|--5-5--5-5--5-5-5-5-5-5-8|-------------------|
   .    .    .   .   .   
|----------------------------------------------------------|
|----------------------------------------------------------|
|----------------------------------------------------------|
|----------------------------------------------------------|
|-----5----5----5----5---5---5-----5----5----5----5---5---5|
|-5-5-5--5-5--5-5--5-5-5-5-5-5-5-5-5--5-5--5-5--5-5-5-5-5-5|
  . .    .    .    .   .   .   . .   .    .    .   .   .  

Part 1 6x

Part 3

Part 4

Part 5 2x than first half end on 8

Part 2 4x
Tap to rate this tab
 
# A B C D E F G H I J K L M N O P Q R S T U V W X Y Z