Song name
# A B C D E F G H I J K L M N O P Q R S T U V W X Y Z

Mygrain - Humanimal tab

Intro  Part 1
|------------------------------------------------------------------------|
|------------------------------------------------------------------------|
|------------------------------------------------------------------------|
|------------------------------------------------------------------------|
|-0--0--------------------------------------3-------1-----0--------------|
|-0--0------------------------0-0-0-0-0-0-3---0-0-1---0-0---0-0-0-0-0-0-3|
  .  .         Part 2
|------------|---------------------------------------------------------|
|------------|------tremolo-pick---------------------------------------|
|-----------m|---------------------------------------------------------|
|-----------u|---------------------------------------------------------|
|-3-------1-t|--------------------------------3-----------1-----------0|
|---0-0-1---e|------0-0-0-0-0-0-0-0-0-0-0-0-3---0-0-0-0-1---0-0-0-0-0--|7x

|----------------------------------------|
|--End-with-this-on-the-8th-time---------|
|----------------------------------------|
|----------------------------------------|
|---------------------------3-----------1|
|-0-0-0-0-0-0-0-0-0-0-0-0-3---0-0-0-0-1--|

Verse
|--------------------------------------------------------|
|--------------------------------------------------------|
|-----------------------7-7-7-----------------------7-7-7|
|-7-0-0-5-0-0-8-0-0-7-0-------7-0-0-5-0-0-8-0-0-7-0------|
|--------------------------------------------------------|
|--------------------------------------------------------|

|--------------------------------------------------------|
|--------------------------------------------------------|
|-----------------------7-7-7-----------------------7-7-7|
|-7-0-0-5-0-0-8-0-0-7-0-------7-0-0-5-0-0-8-0-0-7-0-5-5-5|
|--------------------------------------------------------|
|--------------------------------------------------------|2x

Play Part 2 of the Intro 3x (not the end) than end

Play Verse

Pre-chorus
|------------------------------------|
|------------------------------------|
|------------------------------------|
|-5-5-5-5-7-7-7-7-9-9-9-9-11-11-11-11|
|-3-3-3-3-5-5-5-5-7-7-7-7-9--9--9--9-|
|------------------------------------|7x

Chorus
|-----------------------------|
|-----------------------------|
|-----------------------------|
|-0--0--5--5-5-5-3-3-3-3-7-7-7|
|-0--0--3--3-3-3-1-1-1-1-5-5-5|
|-0--0------------------------|3x

|-----------------------------|                    
|-----------------------------|                    
|-----------------------------|                    
|-0--0--5--5-5-5-3-3-3-3-2-2-2|                    
|-0--0--3--3-3-3-1-1-1-1-0-0-0|                    
|-0--0------------------------|Play whole Chorus 2x

|-------------------|
|-------------------|
|-------------------|
|-0-----------------|
|-0-----------------|
|-0-----------------|

Play Verse 4x

Play Pre-chorus

Play Chorus

|-------------------------|
|-------------------------|
|-------------------------|
|-0-----------------------|
|-0-----------------------|
|-0-----------------------|

End
|----------------------------------------------------|
|----------------------------------------------------|
|-Tremolo-pick---------------------------------------|
|----------------------------------------------------|
|---------------------------3-----------1-----------0|
|-0-0-0-0-0-0-0-0-0-0-0-0-3---0-0-0-0-1---0-0-0-0-0--|7x

|---------------------------------------------|
|---------------------------------------------|
|---------------------------------------------|
|---------------------------------------------|
|---------------------------3-----------1-0--0|
|-0-0-0-0-0-0-0-0-0-0-0-0-3---0-0-0-0-1---0--0|
                                          .  .
Tap to rate this tab
# A B C D E F G H I J K L M N O P Q R S T U V W X Y Z