Song name
# A B C D E F G H I J K L M N O P Q R S T U V W X Y Z

Mylene Farmer - Paradis Inanim tab

Help us improve GuitareTab! Take a short survey!
Highlighted       Show chord diagrams
Mylène Farmer - Paradis inanimé (de l'album "point de suture")
By WOC


------------------------------
Chords (acoustic): 

Verse/Couplet

     A#m  F    C#   Cm                                     
                                    
E||--6----1----4----3----|
B||--6----1----6----4----|
G||--6----2----6----5----|
D||--8----3----6----5----|
A||--8----3----4----3----|
E||--6----1--------------|

Chrorus/Refrain

     A#m  C#   G#   D#     
    
E||--1----4----4----6----|
B||--2----6----4----8----|
G||--3----6----5----8----|
D||--3----6----6----8----|
A||--1----4----6----6----|
E||------------4---------|
------------------------------

Chords (electric guitar): 

Verse/Couplet

    A#5  F5   C#5   C5                                     
                                    
E||----------------------|
B||----------------------|
G||--6---------6----5----|
D||--8----3----6----5----|
A||--8----3----4----3----|
E||--6----1--------------|

Chrorus/Refrain

     A#5 C#5  G#5  D#5     
    
E||----------------------|
B||----------------------|
G||--3----6---------8----|
D||--3----6----6----8----|
A||--1----4----6----6----|
E||------------4---------|


--------------------------------------
Verse/Couplet 1 :
A#m
Dans mes draps de chrysanthèmes
F
L’aube peine à me glisser
F
Doucement son requiem
C#        Cm 
Ses poèmes adorés

Dans mon lit, là, de granit
Je décompose ma vie
Délits, désirs illicites
L’espoir, le rien et l’ennui

Mais pour toujours
Pour l’amour de moi
Laissez-moi mon…

--------------------------------------
Chorus/Refrain :

A#m          C#   
Paradis inanimé
G#             D# 
Long sommeil, lovée
Paradis abandonné
Sous la lune, m’allonger
Paradis artificiel
Délétère, moi délaissée
Et mourir d’être mortelle
Mourir d’être aimée

--------------------------------------

Verse/Couplet 2 :
Emmarbrée dans ce lit-stèle
Je ne lirai rien ce soir
Ne parlerai plus, rien de tel
Que s’endormir dans les draps
Du noir

C’est le sombre, l’outre-tombe
C’est le monde qui s’éteind
L’épitaphe aura l’audace
De répondre à mon chagrin

--------------------------------------
Chrorus/Refrain :

A#m          C#   
Paradis inanimé
G#             D# 
Long sommeil, lovée
Paradis abandonné
Sous la lune, m’allonger
Paradis artificiel
Délétère, moi délaissée
Et mourir d’être mortelle
Mourir d’être aimée

Paradis inanimé
Long sommeil, lovée
Paradis abandonné
Sous la lune, m’allonger
Paradis artificiel
Délétère, moi délaissée
Et mourir d’être mortelle
Mourir d’être aimée



Related for Paradis Inanim tab