Guitaretab - guitar tabs
Song name
# A B C D E F G H I J K L M N O P Q R S T U V W X Y Z

Mymp - Waiting In Vain tab

Waiting in Vain by MYMP

tabbed by yHughieboy <-yhugh@ustexchange.com/zyren1828@yahoo.com

Tuning - Standard
   
Intro:

e|--------------4------------------4-----|
b|--------4--------4---------4--------4--|
g|-----6------------------6--------------|
D|---------------------------------------|
A|--4--------4---------4--------4--------|
E|---------------------------------------|


e|---------------------------------------|
b|-------6-----6-------------6-----6-----|
g|-----6-----------6-------6-----------6-|
D|--4--------4----------4--------4-------|
A|---------------------------------------|
E|---------------------------------------|

*Repeat 2x

1st Verse:


e|--------------4------------------4-----|
b|--------4--------4---------4--------4--|
g|-----6------------------6--------------|
D|---------------------------------------|
A|--4--------4---------4--------4--------|
E|---------------------------------------|

             From the very first time.....

e|---------------------------------------|
b|-------6-----6-------------6-----6-----|
g|-----6-----------6-------6-----------6-|
D|--4--------4----------4--------4-------|
A|---------------------------------------|
E|---------------------------------------|

*Repeat again til refrain...

Refrain:

e|--------------4------------------4-----|
b|--------4--------4---------4--------4--|
g|-----6------------------6--------------|
D|---------------------------------------|
A|--4--------4---------4--------4--------|
E|---------------------------------------|

          I dont wanna wait in vain......
[ Tab from: http://www.guitaretab.com/m/mymp/131372.html ]
e|---------------------------------------|
b|-------6-----6-------------6-----6-----|
g|-----6-----------6-------6-----------6-|
D|--4--------4----------4--------4-------|
A|---------------------------------------|
E|---------------------------------------|

           for your love......

e|--------------4------------------4-----|
b|--------4--------4---------4--------4--|
g|-----6------------------6--------------|
D|---------------------------------------|
A|--4--------4---------4--------4--------|
E|---------------------------------------|

           I dont wanna wait in vain...

Fill 1:
             
e|----------------|
b|----------------|
g|----------------|
D|--6--6--6--6----|
A|--4--4--4--4----|
E|--2--2--2--2----|

            For your love.....

Chorus:

e|--2--4--8---6---|
b|--2--4--9---7---|
g|--3--5--8---6---| <--these were the chord of the chorus. Just try to 
D|--4--6--10--8---|     listen to the song, tpos i-blend nyo n lng! I'm 
A|--4--6--8---6---|       pretty sure this is correct!
E|--2--4----------|

       Summer is here, im Still.......      

Instrumental/2nd Verse and 2nd Refrain:


    F#    C#
e|--2-----6--|  <--here's the part that u'll hear all throughout the song
b|--2-----8--|       after the first stanza. 
g|--3-----8--|         
D|--4-----8--|
A|--4-----6--|
E|--2--------|


Intro
1st Verse
Refrain
Chorus
Instrumental
2nd Verse
2nd Refain
Chorus
.....then u will repeat some parts over and over til the end of the song.


Thats it! Im sure of the chords, bsta i-blend nyo n lng dun sa kanta! This is just my
first tab, so email me n lng for comment and corrections. 
				
Related for Waiting In Vain tab