Song name
# A B C D E F G H I J K L M N O P Q R S T U V W X Y Z

Mymp - I Miss You tab

Artist: Go Radio
Guitarist: Jason Lancaster
Song: I Miss You
Album: Welcome To Life
Tabbed By: Garrett (lostintransit127@aol.com)
Website: http://www.wearegoradio.com

This song is really easy. Now i know it's not perfect but it still sounds decent. This 
my first tab so be kind. i'm only 16. And i only tabbed the lead because its what i could 
The rythem is Just x355xx, x755xx, x799xx, 355xxx, 577xxx variations

Key:
~: Let Note Ring
.: Palm Mute
\: Slide Out Downwards

[Tuning: Standard - E,A,D,G,B,e]


Intro:
e|---8-7-------|-----8-7----------------------|
B|1/5---8-5----|--1/5----8-10-10/12-----------|
G|------------|-------------------------------|
D|------------|-------------------------------|
A|------------|-------------------------------|
E|------------|-------------------------------|


Verse One:
("Wait This Isn't Me...")

Now What I do for this section is just variations of C add 9 And a basic C.

This is all picked out, I'm just giving you the chords to play with, i generally change 
the 3rd fret, open fret, and 1st fret on the E strng

e|-0--3------------------------------------------------|
B|-3--3--1---------------------------------------------|
G|-0--0--0---------------------------------------------|
D|-2--2--2---------------------------------------------|
A|-3--3--3---------------------------------------------|
E|-----------------------------------------------------|


Pre-Chorus:
(From A Book I wouldn't read for goodness sake.)
e|-------------------------------|
G|-------------------------------|
D|-5----------7------------------|
A|-5-(ring out)--7-(let ring)----|
E|-3-----------5-----------------|
             ................


Chorus:
(And Right Now Where You Are...) Figure Out The Timing
e|------------------------|-----------------------------------------------|
B|------------------------|-----------------------------------------------|
G|-5--5--5--9--7--7--7 (x2)-|---------------------------------------------|
D|-5--5--5--9--7--7--7----|-5-7-9-7---------------------------------------|
A|-3--7--3--7--5--9--5----|-5-7-9-7---------------------------------------|
E|------------------------|-3-5-7-5---------------------------------------|


Repeat: Intro, Verse, Pre-Chorus and Chorus

I'm working on the bridge. but here is a good idea of what the song should sound like. 
100% on the intro but the rest is just what i play that sounds decent.


Thanks, If You have any questions PLease email me at the address above.
Tap to rate this tab
# A B C D E F G H I J K L M N O P Q R S T U V W X Y Z