Song name
# A B C D E F G H I J K L M N O P Q R S T U V W X Y Z

Mymp - Fast Car tab

This is the finger picking part she plays all through the song
  good luck :)

played with capo on first fret but can be played without one

E|-----------------------|
B|-0-1-0-3--3-8-8-7-5-3--|
G|-0-0-0-0--0-0-0-0-0-0--|
D|-2-----0-0------0------|
A|------------7----------|
E|-----------------------|

E|------------------------|
B|-0-1-0-3--3-8-10-7-5-3--|
G|-0-0-0-0--0-0-0--0-0-0--|
D|-2-----0-0-------0------|
A|------------7-----------|
E|------------------------|

I'd advise you to listed to the song on youtube or itunes, ect. to get the rythem right. thanks
Tap to rate this tab
 
# A B C D E F G H I J K L M N O P Q R S T U V W X Y Z