Song name
# A B C D E F G H I J K L M N O P Q R S T U V W X Y Z

Mymp - Ill Never Get Over You Getting Over Me tab

-------------------------------------------------------------------------------
I’ll never get over you getting over me
MYMP
-------------------------------------------------------------------------------
Tabbed by: Noel Nodalo			
Email:stringlizner@yahoo.com

Tuning: Standard 


*It’s (99.9%) standard tuning for all "MYMP" songs
*Fix your guitar tuning to get the tab easy
*Link Bass--->it doesnt matter if you like to use it or not

email me for any questions...thanKs...

Intro
e|----------------1---------------------1------------------------------------|
B|----------4-----2---2-----------4-----2------------------------------------|
G|------3-5----5--3--3--------3-5----5--3------------------------------------|
D|-----6----------1-1--------6----------1------------------------------------|
A|----6---------------------6------------------------------------------------|
E|-4-4-------------------4-4-------------------------------------------------|
     Ab                    Ab

Verse
e|---------------------------4-----4-----------------------------------------|
B|-----6----------6----------------------------------------------------------|
G|-------5----------5------5------5------------------------------------------|
D|---6----6-----6----6----6------6-------------------------------------------|
A|--6----------6---------6------6--------------------------------------------|
E|-4----------4--------------------------------------------------------------|
   Ab         Ab         Ab/E   Ab/E

e|---------------------------4-------1—---1----------------------------------|
B|-----6----------6--------------(2)----(1)-1--------------------------------|
G|-------5----------5------5-----(3)----(2)--2-------------------------------|
D|---6----6-----6----6----6------(3)----(3)----------------------------------|
A|--6----------6---------6-------(1)----(3)----------------------------------|
E|-4----------4--------------------------------------------------------------|
   Ab         Ab         Ab/E    Bbm     F/C

Refrain
e|--------1----1--------1----1---------------x---x--x------------------------|
B|-------1-------1-----1-1----1------6----6—(8)-(8)(8)-----------------------|
G|------2----2--------2-------------6-6-----(8)-(8)(8)-----------------------|
D|-2---3----3--------2-----2-------6--------(8)-(8)(8)-----------------------|
A|------------------------------4-4-----4---(6)-(6)(6)-----------------------|
E|-------------------------------------------x---x--x---(3—LinkBass)---------|
       F    F        Am/F         C#        Eb   Eb Eb

Chorus
e|-------4-------4----1-1--------4---1-1----x--------------------------------|
B|--------4-------4---2--2--------4--2--2---8--------------------------------|
G|-------------3------1---1----------1---1--8--------------------------------|
D|-----6--------------3--------6-----3------8--------------------------------|
A|----4-------3-------1-------4------1------6--------------------------------|
E|---------------------------------------------3-(LinkBass)------------------|
      C#m7            Bbm7    C#m7   Bbm7   Eb  

e|-------4-------4----1----x-------------------------------------------------|
B|--------4-------4---2----8-------------------------------------------------|
G|-------------3------1----8-------------------------------------------------|
D|-----6--------------3----8-------------------------------------------------|
A|----4-------3-------1----6-------------------------------------------------|
E|---------------------------------------------------------------------------|
      C#m7            Bbm7 Eb

Intro2:
e|----------------2----------------------------------------------------------|
B|----------4-----2---2------------------------------------------------------|
G|------3-5----5--3--3-------------------------------------------------------|
D|-----6----------1-1---1----------------------------------------------------|
A|----6----------------------------------------------------------------------|
E|-4-4-----------------------------------------------------------------------|

Verse
Refrain2
e|--------1----1--------1----1--------------x---x--x-------------------------|
B|-------1-------1-----1-1----1------6---6—(8)-(8)(8)------------------------|
G|------2----2--------2-------------6-6----(8)-(8)(8)------------------------|
D|------------------2-----2-------6--------(8)-(8)(8)------------------------|
A|-------------------------------4-----4---(6)-(6)(6)------------------------|
E|--1-1----1--------------------------------x---x--x---3—(LinkBass)----------|
      F            Am/F         C#          Eb  Eb Eb
      
Chorus2
e|-------4-------4----1-1--------4---1-1----x--------------------------------|
B|--------4-------4---2--2--------4--2--2---8--------------------------------|
G|-------------3------1---1----------1---1--8--------------------------------|
D|-----6--------------3--------6-----3------8--------------------------------|
A|----4-------3-------1-------4------1------6--------------------------------|
E|---------------------------------------------3-(linkBass)------------------|
      C#m7            Bbm7    C#m7   Bbm7   Eb

e|-------4-------4----1----x------4------------------------------------------|
B|--------4-------4---2----8------4------------------------------------------|
G|-------------3------1----8------5------------------------------------------|
D|-----6--------------3----8------6------------------------------------------|
A|----4-------3-------1----6------6------------------------------------------|
E|--------------------------------4------------------------------------------|
				Me...
      C#m7            Bbm7 Eb     Ab

Bridge:
e|-6------3------1------1------6---------1---------3------8------------------|
B|-6------4------2------2------6---------2---------4------8------------------|
G|-6------3------1------1------6---------1---------3------8------------------|
D|-6------5------3------3------6---------3---------5------8------------------|
A|-4------3------1------1------4---------1---------3------6------------------|
E|---------------------------------------------------------------------------|
   No..   life.. I can...      touch...  You’re... I’ve...loved
   C#     Cm7    Bbm7   Bbm7   C#        Bbm7      Cm7    Eb

Chorus
Chorus

Outro: 
e|----------------2--------------------2------891198h9p86h8p6---------4------|
B|----------4-----2---2-----------4----2---911---------------986------4------|
G|------3-5----5--3--3-3------3-5---5--3------------------------8653—-4------|
D|-----6----------1-1---1----6---------1------------------------------5------|
A|----6---------------------6-----------------------------------------6------|
E|-4-4---------------------4------------------------------------------6------|
e|--------------------------------------------------------------------4------|
     Ab                    Ab              			    Done!	

PLEASE RATE MY TAB------------------"sTringLizner"

(Thanks for visiting)

	
| /  slide up
| \  slide down
| h  hammer-on
| p  pull-off
| ~  vibrato
| +  harmonic
| x  Mute note
============================================================================

Tap to rate this tab
# A B C D E F G H I J K L M N O P Q R S T U V W X Y Z