Song name
# A B C D E F G H I J K L M N O P Q R S T U V W X Y Z

Mymp - Friend Of Mine tab

"Friend of Mine"
The National
Alligator (2005)


Greetings.  Just listen to the song to know when the different parts are played and how 
times they're repeated.  Also, there seems to be light distortion on some of the parts.


{A} "Hey, where the hell are you..."
|---------------------------------------------|
|--10--10-12-10-12-10-10---10-12-10-12-10-----|
|---9---9--9--9--9--9--9----9--9--9--9--9-----|
|---------------------------------------------|
|---------------------------------------------|
|---------------------------------------------|

|------------------------------10--8(8)-------|
|--/10-10-10-10-11-10(10)--8--8-8--8-8--------|
|--/10-10-10-10-10-10(10)--9--9-9--9-9--------|
|--/10-10-10-10-10-10(10)-10-1010-1010--------|
|---------------------------------------------|
|---------------------------------------------|

|-------------------------------10--8(8)------|
|-10-10-10-10-10-11-10(10)--8--8-8--8-8-------|
|-10-10-10-10-10-10-10(10)--9--9-9--9-9-------|
|-10-10-10-10-10-10-10(10)-10-1010-1010-------|
|---------------------------------------------|
|---------------------------------------------|

{B}
|--12------10-10-10--12------10-10-8----------|
|--10--10--10-10-10--10--10--10-10-8----------|
|-------9-----------------9-------------------|
|---------------------------------------------|
|---------------------------------------------|
|---------------------------------------------|

{C} "I'm getting nervous..."
|--12----12----12--10----10----10-------------|
|----13----13--------10----10-----------------|
|---------------------------------------------|
|---------------------------------------------|
|---------------------------------------------|
|---------------------------------------------|

|--8----8----8--7----7----7-------------------|
|----8----8-------8----8----------------------|
|---------------------------------------------|
|---------------------------------------------|
|---------------------------------------------|
|---------------------------------------------|

{D} Finale -- "Why did you listen to that man..."
|--7-7-7-7-8-8-10----10-13----12-10-----------|
|--8-8-8-8-8-8-10-10-10-10-10-10-10-10--------|
|---------------------------------------------|
|---------------------------------------------|
|---------------------------------------------|
|---------------------------------------------|

|--8---812--10-8---7(7)-----------------------|
|--8-8-8-8-8-8-8-8-8(8)---8---8---8---8-------|
|-----------------------7---7---7---7---------|
|---------------------------------------------|
|---------------------------------------------|
|---------------------------------------------|
Tap to rate this tab
# A B C D E F G H I J K L M N O P Q R S T U V W X Y Z