Guitaretab - guitar tabs
Song name
# A B C D E F G H I J K L M N O P Q R S T U V W X Y Z

Mymp - Last Chance tab

Last Chance by MYMP
Tabber: Gello Cunan
100% Accurate
1st Tab
Please rate it..
Just listen to the song for plucking style and progression..
Thanks and enjoy!

CAPO ON 1ST FRET

Intro:
     
f  |---------|----------|---0---|-----0-----|
C  |--3---3--|--3---3---|-3-----|----1-1----|
G# |-----2-2-|-----0-0--|----5--|---0-------|
D# |----0----|----0-----|-------|--0--------|
A# |---------|--2-------|-0-----|-----------|
F  |--3------|----------|-------|-----------|

     
f  |---------|----------|---0---|--0--------|
C  |--3---3--|--3---3---|-3-----|--1--------|
G# |-----2-2-|-----0-0--|----5--|--0--------|
D# |----0----|----0-----|-------|--0--------|
A# |---------|--2-------|-0-----|-----------|
F  |--3------|----------|-------|-----------|

Verse: Repeat 2x
[ Tab from: http://www.guitaretab.com/m/mymp/176008.html ]
f  |---------|----------|-------|------2----|
C  |--3---3--|--3---3---|----1--|----1-1----|
G# |-----2-2-|-----0-0--|---2-2-|---0--2----|
D# |----0----|----0-----|--2----|--0---1----|
A# |---------|--2-------|-0-----|-----------|
F  |--3------|----------|-------|-----------|
                                           *  
f  |---------|----------|-----0---|----0---*--------0--|--0---|
C  |-------3-|-----2----|----1-1--|---3-3--*------0----|--1---|
G# |-----0---|----4-4---|---0-----|--0---0-*-----0-0---|--0---|
D# |----4----|---5------|--0------|--------*----2------|--0---|
A# |---2-----|--0-------|---------|--------*-0-3-------|------|
F  |--0------|----------|---------|-3------*-----------|------|
                                           *

2nd Repeat of the verse chords, play until the (*) then continue 
with this:
Refrain:

f  |--------0--|--------2--|---------|-------|-----0-------0---|
C  |------0----|------0----|------3--|----2--|---1--0----1--0--|
G# |-----0-0---|-----2-2---|----0----|---4-4-|--0-0-----0-0----|
D# |----2------|----1------|---4-----|--5----|-0-------0-------|
A# |-0-3-------|-0-2-------|--2------|-0-----|-----------------|
F  |-----------|-----------|-0-------|-------|-----------------|
 
-Repeat Intro Once
-Repeat Verse of the same progression as earlier (verse-verse until * then refrain)

Bridge:
                                        Ebm7      Ab7
f  |--------0--|--------2--|---------|---5-5---|---3-3---|
C  |------0----|------0----|------3--|---6--6--|---3-----|
G# |-----0-0---|-----2-2---|----0----|---5-----|---4-----|
D# |----2------|----1------|---4-----|---7-----|---3-----|
A# |-0-3-------|-0-2-------|--2------|---5-----|---5-----|
F  |-----------|-----------|-0-------|---------|---3-----|


f  |--------0--|--------2--|-0-0-0-|-0-0-0--|
C  |------0----|------0----|-1-1-1-|-1-1-1--|
G# |-----0-0---|-----2-2---|-0-0-0-|-2-2-2--|
D# |----2------|----1------|-2-2-2-|-0-0-0--|
A# |-0-3-------|-0-2-------|-0-0-0-|--------|
F  |-----------|-----------|-------|--------|

-Repeat Verse with Refrain once
-Repeat Intro twice (Outtro - Ending chord D9/G 3x0230)
-End of the Song

THANKS!! Please Rate..









Related for Last Chance tab