Song name
# A B C D E F G H I J K L M N O P Q R S T U V W X Y Z

Mymp - Till They Take My Heart Away tab

TITLE: Till They Take My Heart Away
ARTIST: MYMP
TABBER: renaissancedude


INTRO: x2
E|--------------------------|
B|--------5-4-0-2---0-0-5---|
G|------4---------4--4------|
D|--------------------------|
A|---2----------------------|
E|-0------------------------|

E|--------------------------|
B|--------5-4-0-2---0-2-----|
G|-----4----------4---------|
D|--------------------------|
A|---2---2------------------|
E|--------------------------|

E|----------------------|
B|-3-2-----------5------|
G|-----4--2--2h4--------|
D|-0--------------------|
A|----------------------|
E|----------------------|


to hell with the verse, I can't tab them
just strum or pluck this chords

verse: x2
  E  E  C#m  D
E|x--x---4--------------------------|
B|5--5---5--3-2---------5-----------|
G|4--4---6------4-2-2h4-------------|
D|x--x---6--0-----------------------|
A|2--2---4--------------------------|
E|0--0------------------------------|

chorus:
pluck or strum
                           A  B
   A  B  G#  c?(strum once then pluck)
E|-0--2--4-----------------0--2-------|
B|-2--4--4------5-4-4-4h6--2--4-------|
G|-2--4--5---6--4-4-4-4----2--4-------|
D|-2--4--6---6-------------2--4-------|
A|-0--2--6---4--4-4-4-4----0--2-------|
E|-------4----------------------------|

Back to verse: x2
Pluck or strum
  E  E  C#m  D
E|x--x---4--------------------------|
B|5--5---5--3-2---------5-----------|
G|4--4---6------4-2-2h4-------------|
D|x--x---6--0-----------------------|
A|2--2---4--------------------------|
E|0--0------------------------------|

Back to chorus: w/c is longer


   A  B  G#  c?            A  B  C# then back to A
E|-0--2--4-----------------0--2--4-----|
B|-2--4--4------5-4-4-4h6--2--4--6-----|
G|-2--4--5---6--4-4-4-4----2--4--6-----|
D|-2--4--6---6-------------2--4--6-----|
A|-0--2--6---4--4-4-4-4----0--2--4-----|
E|-------4-----------------------------|

                                      A  B
   A   B        G#      c?(strum once then pluck)
E|-0---2--------4---------------------0--2-------|
B|-2---4--------4----------5-4-4-4h6--2--4-------|
G|-2---4--------5-------6--4-4-4-4----2--4-------|
D|-2---4--------6-------6-------------2--4-------|
A|-0---2--------6-------4--4-4-4-4----0--2-------|
E|--------------4--------------------------------|
AWAY BELIEVE IM HERE TO STAY...........

back to intro: x1
E|--------------------------|
B|--------5-4-0-2---0-0-5---|
G|------4---------4--4------|
D|--------------------------|
A|---2----------------------|
E|-0------------------------|

E|--------------------------|
B|--------5-4-0-2---0-2-----|
G|-----4----------4---------|
D|--------------------------|
A|---2---2------------------|
E|--------------------------|

E|----------------------|
B|-3-2-----------5------|
G|-----4--2--2h4--------|
D|-0--------------------|
A|----------------------|
E|----------------------|

Back again to verse: x2
Pluck or strum
  E  E  C#m  D?
E|x--x---4--------------------------|
B|5--5---5--3-2---------5-----------|
G|4--4---6------4-2-2h4-------------|
D|x--x---6--0-----------------------|
A|2--2---4--------------------------|
E|0--0------------------------------|

Back to chorus: longer one- extended


   A  B  G#  c?            A  B  C# then back to A
E|-0--2--4-----------------0--2--4-----|
B|-2--4--4------5-4-4-4h6--2--4--6-----|
G|-2--4--5---6--4-4-4-4----2--4--6-----|
D|-2--4--6---6-------------2--4--6-----|
A|-0--2--6---4--4-4-4-4----0--2--4-----|
E|-------4-----------------------------|

                                      A  B
   A   B        G#      c?(strum once then pluck)
E|-0---2--------4---------------------0--2-------|
B|-2---4--------4----------5-4-4-4h6--2--4-------|
G|-2---4--------5-------6--4-4-4-4----2--4-------|
D|-2---4--------6-------6-------------2--4-------|
A|-0---2--------6-------4--4-4-4-4----0--2-------|
E|--------------4--------------------------------|
AWAY BELIEVE IM HERE TO STAY...........

Instrumentals: (where they switch root notes
and the plucking is somewhat like the verse)

  D? x2
E|-----------------------------------------|
B|-----------------------------------------|
G|---9--9------------------9---9-----------|
D|--7-----7-----7--------7-------7-----7---|
A|-5--5-----5-5---5----5-----5-----5-5---5-|
E|-----------------------------------------|

  C#7
 Strum if u want, until here only!
E|-----4---4------------------------------------------|
B|-----------5--------------------7--7--5-4-----------|
G|-------------4----------------------------4---------|
D|---6----------------------------------------6-------|
A|-4-----4------4-----------------4-------------4-----|
E|----------------------------------------------------|

Strum this chord or pluck then
   B??                     B  C#
E|-------------------------2--4--|
B|-5-----------------------4--6--|
G|-4-----------------------4--6--|
D|-0-----------------------4--6--|
A|-2-----------------------2--4--|
E|-------------------------------|

Chorus: x3 Move the sequence of the notes by one so
A + 1whole note= B... like that... fuck

   B  C# A#  D#?           B  C# then back to B
E|-2--4--6-----------------2--4-------|
B|-4--6--6------7-6-6-6h7--4--6-------|
G|-4--6--7---8--6-6-6-6----4--6-------|
D|-4--6--8---8-------------4--6-------|
A|-2--4--8---6--6-6-6-6----2--4-------|
E|-------6----------------------------|

Back to intro: x1

INTRO: x2
E|--------------------------|
B|--------5-4-0-2---0-0-5---|
G|------4---------4--4------|
D|--------------------------|
A|---2----------------------|
E|-0------------------------|

E|--------------------------|
B|--------5-4-0-2---0-2-----|
G|-----4----------4---------|
D|--------------------------|
A|---2---2------------------|
E|--------------------------|

E|----------------------|
B|-3-2-----------5------|
G|-----4--2--2h4--------|
D|-0--------------------|
A|----------------------|
E|----------------------|

this is for ktal basilla ,
mail me at kwanchichi1@yahoo.com for requests or their are mistakes in this tab, or if 
needed a video
Tap to rate this tab
# A B C D E F G H I J K L M N O P Q R S T U V W X Y Z