Guitaretab - guitar tabs
Song name
# A B C D E F G H I J K L M N O P Q R S T U V W X Y Z

Mymp - Man In The Mirror tab

===============================================================================
                     Man in the Mirror (acoustic) - MYMP
-------------------------------------------------------------------------------
Tabbed by: stephanie_7368
Email:     stephanie_7368@yahoo.com

legends:
  m -> palm mute
  p -> pull-off
  h -> hammer-on

This is MYMP's beautiful rendition of Michael Jackson's Man in the Mirror.
I just got lucky that the ASAP rerun during Pacquiao-Hatton fight was the one
where MYMP performed this. I only recorded it using my MP3 player, thus the
crappy sounds. Some notes can't be heard so this tab may not be that accurate.
You can listen to the song here-

http://www.youtube.com/watch?v=f2mBQEqZuiQ

The song started so soon that I haven't got the chance to record the INTRO.
But if my memory is right, it's just the same as the VERSES.


VERSE I

     3x0230      2x0231          0x0231            D
     1 * * * 2 * * * 3 * * * 4 * * *   1 * * * 2 * * * 3 * * * 4 * * *
  e|-3-----------2---------------0---|---------------------------------|
  B|---------t-----------------------|---------t-----------------------|
  G|---------a-----------------------|---------a---0-------------------|
  D|-----2m--p-----------2-------2---|-----0---p---2-------------------|
  A|-----3m--------------3-------3---|-----3-------3-------------------|
  E|-------------------------1---1---|---------------------2---3-------|
         I'm gonna make a change                   for once in my

     x30030                            x30033
     1 * * * 2 * * * 3 * * * 4 * * *   1 * * * 2 * * * 3 * * * 4 * * *
  e|---------------------------------|---------------------------------|
  B|-3-------------------------------|-3-------------------------------|
  G|---------------------------------|---------------------------------|
  D|-0-------0-----------------------|---------0-----------------------|
  A|-3-----------3-------------------|-------------3-------------------|
  E|-0-----------0-------------------|-------------3-------------------|
         life                                                It will feel

     3x0230      2x0230                0x0230      xx0030
     1 * * * 2 * * * 3 * * * 4 * * *   1 * * * 2 * * * 3 * * * 4 * * *
  e|-3-----------2-------------------|-0-------------------------------|
  B|---------t-----------------------|---------t-----------------------|
  G|---------a-----------------------|---------a---0-------0-----------|
  D|-----2m--p---2-----------2-------|-----0---p---0-----------0-------|
  A|-----3m------3-----------3-------|-----3-------3-----------3-------|
  E|-----------------------------0---|---------------------------------|
         real   good      gonna make a difference gonna make it right

     x30030                            x30033
     1 * * * 2 * * * 3 * * * 4 * * *   1 * * * 2 * * * 3 * * * 4 * * *
  e|---------------------------------|---------------------------------|
  B|-3-------------------------------|---------------------------------|
  G|---------------------------------|---------------------------------|
  D|-0-------0-----------------------|-0---0---0-----------------------|
  A|-3-----------3-----------3-------|-------------3-------------------|
  E|-0-----------0-------------------|---------3-----------------------|
                                                               As I


VERSE II

     3x0230      2x0030          0x0030            xx0030
     1 * * * 2 * * * 3 * * * 4 * * *   1 * * * 2 * * * 3 * * * 4 * * *
  e|-3-----------2---------------0---|---------------------------------|
  B|---------t-----------------------|---------t-----------------------|
  G|---------a-----------------------|---------a---0-------------------|
  D|-0---2m--p---0-------2m--0-------|-0---2m--p---0-----------0-------|
  A|-0---3m------3-------3m--3-------|-----3m------3-------3-----------|
  E|---------------------------------|-----------------0---------------|
        turn up the col-lar on        my favorite winter coat

     x30033                            x30033
     1 * * * 2 * * * 3 * * * 4 * * *   1 * * * 2 * * * 3 * * * 4 * * *
  e|---------------------------------|---------------------------------|
  B|-3-------------------------------|-3-------------------------------|
  G|---------------------------------|---------------------------------|
  D|-----0---------------------------|-----0-------------------0-------|
  A|---------3---3---------------3---|---------3---3---------------3---|
  E|---------3---------------0-------|---------3-----------------------|
        this wind is blowin' my mind                       I see the kids

     3x0230      2x0030          0x0230            xx0033
     1 * * * 2 * * * 3 * * * 4 * * *   1 * * * 2 * * * 3 * * * 4 * * *
  e|-3-----------2---------------0---|---------------------------------|
  B|---------t-----------------------|---------------------------------|
  G|---------a-----------------------|-------------0-------------------|
  D|-0---2m--p---0-------2m--0-------|-0---2-------0-------0-----------|
  A|-0---3m------3-------3m--3-------|-----3-------3-----------3-------|
  E|---------------------------------|-------------3-----------3-------|
             in the street, with not enough to eat             Who am I
[ Tab from: http://www.guitaretab.com/m/mymp/184968.html ]
     x30033                            x30033
     1 * * * 2 * * * 3 * * * 4 * * *   1 * * * 2 * * * 3 * * * 4 * * *
  e|---------------------------------|---------------------------------|
  B|-3-------------------------------|-3-------------------------------|
  G|---------------------------------|---------------------------------|
  D|-----0---------------0-----------|-----0---------------0-----------|
  A|---------3---3-----------3---3---|---------3---3-----------3-------|
  E|---------3---------------3-------|---------3---------------3-------|
         to be blind pretending not to see their needs


REFRAIN

     Am7                     x20032                x20033
     1 * * * 2 * * * 3 * * * 4 * * *   1 * * * 2 * * * 3 * * * 4 * * *
  e|-0-----------0-------------------|---------------------------------|
  B|---------t-----------------------|-2-------t---2-------------------|
  G|---------a-----------------------|---------a-----------------------|
  D|-----0---p---0-------------------|-----0---p---0-------0-------0---|
  A|-----1-----------0h1p0---3-------|-----3-------3-----------3-------|
  E|-----0-------------------3-------|-----2-------3-----------3-------|
         A summer's disregard              a  broken   bottle top

     x30030                            x20023
     1 * * * 2 * * * 3 * * * 4 * * *   1 * * * 2 * * * 3 * * * 4 * * *
  e|---------------------------------|---------------------------------|
  B|-3-------------------------------|-2-------t---------------t-------|
  G|---------------------------------|---------a---------------a-------|
  D|-----0-----------0---------------|-----2---p---2-------2---p-------|
  A|---------3-----------3-----------|-----3-------3-------------------|
  E|---------0-----------3-----------|---------------------------------|
             And a one man's    soul                              They

     Am7                               x20230
     1 * * * 2 * * * 3 * * * 4 * * *   1 * * * 2 * * * 3 * * * 4 * * *
  e|-0-----------0-----------0-------|---------------------------------|
  B|---------t-----------------------|-2-------t---2-------------------|
  G|---------a-----------------------|---------a-----------------------|
  D|-----0---p-------0-----------0---|-----2---p---2-------2-------2---|
  A|-----1-----------1-----------1---|-----3-------3-------3---3-------|
  E|-----0-----------0-----------0---|---------------------------------|
     follow each o-ther on  the wind  ya' know            'Cause they got

     x30230      x30030                D7sus2
     1 * * * 2 * * * 3 * * * 4 * * *   1 * * * 2 * * * 3 * * * 4 * * *
  e|---------------------------------|---------------------------------|
  B|-3-------t---3-----------t-------|-----s---------------------------|
  G|---------a---------------a-------|-0-----t-------------------------|
  D|-2---0---p---0-------0---p-------|-2-------r-----------------------|
  A|-3---3-------3-------3-----------|-1---------u---------------------|
  E|-------------0-------------------|-0-----------m-------------------|
             nowhere         to go         That's why I want you to know


CHORUS I

     300230      x20030                x30230          D7sus2      300033
     1 * * * 2 * * * 3 * * * 4 * * *   1 * * * 2 * * * 3 * * * 4 * * *
  e|-3-------------------------------|---------------------------------|
  B|---------t---2-----------t-------|-3-------t-------5---5-----------|
  G|---------a---------------a-------|---------a-----------------------|
  D|-----2m--p---0-------0---p-------|-----2---p-------5---5-----------|
  A|-----3m------3-------3-----------|-----3-----------5---5-------3---|
  E|---------------------------------|-----------------5---5-------3---|
             I'm   starting with the  man      in  the mirror

                     x20030            x30230          D7sus2
     1 * * * 2 * * * 3 * * * 4 * * *   1 * * * 2 * * * 3 * * * 4 * * *
  e|-3-------------------------------|---------------------------------|
  B|---------t-------2-------t-------|-3-------t-------5---5---5-------|
  G|---------a---------------a-------|---------a-----------------------|
  D|-----0---p-----------0---p-------|-----2---p-------5---5---5-------|
  A|-----3---------------3-----------|-----3-----------5---5---5-------|
  E|---------------------------------|-----------------5---5---5-------|
             I'm     asking him  to  change   his ways

     300230      x20030                x30230          x4x005  x4x003
     1 * * * 2 * * * 3 * * * 4 * * *   1 * * * 2 * * * 3 * * * 4 * * *
  e|-3-------------------------------|---------------------------------|
  B|---------t---2-----------t-------|-3-------t-------4---------------|
  G|---------a---------------a-------|---------a-----------------------|
  D|-----2m--p---0-------0---p-------|-----0---p-----------0-----------|
  A|-----3m------3-------3-----------|-----3---------------0-----------|
  E|---------------------------------|---------------------5---3-------|
         And no      message  could have been  a-   ny clearer

  Dm7 (strum)
  If you wanna make the world a better place
                                          
  Take a look at yourself, then make that


*CAPO ON 1ST FRET - I saw chin using a capo. I think he just added it
  here to raise the tone one fret higher.

CHORUS II

  320033       x22033          x32033            D7sus2
  change  I'm starting with the      man in the mirror,
  320033      x22033        x32033       D7sus2
         I'm asking him to change his ways
  320033       x22033            x32033     A/#C
       And no message could have been any clearer
  D7sus2
  If you wanna make the world a better place

  Take a look at yourself, and then make a change

  You gotta get it right, while you got the time
  (ang gulo ng lyrics dito)

  320033       x22033          x32033            D7sus2
         I'm starting with the      man in the mirror,
  320033      x22033        x32033       D7sus2
         I'm asking him to change his ways
  320033       x22033            x32033     A/#C
       And no message could have been any clearer
  D7sus2
  If you wanna make the world a better place
                                              320033
  Take a look at yourself, and then make that change

  22033 020033      xx0033 x32033       320033
           nanana nanana nananananana

===============================================================================
Related for Man In The Mirror tab
×
Man In The Mirror