Mymp - Say You Love Me tab

hello , this is my 1st tab...
hope it's helpful for evry1 who tries 2 play this song on guitar 

itro :
e----------2----|----------------x----------x-------x-----------|
B--------2---2--|-------------5--x-------3--x-------x----0-----1|
G------2--------|----------6-----x-------4--x-----1-x----1------| 
D----0----------|-------6--------x----------x-------x--2--------|
A---------------|---4------------x--2-------x--2----x-----------|
E---------------|----------------x----------x-------x-----------|

e----------2----|----------------x----------x-------x-----------|
B--------2---2--|-------------5--x-------3--x-------x----0-----1|
G------2--------|----------6-----x-------4--x-----1-x----1------|
D----0----------|-------6--------x----------x-------x--2--------|
A---------------|---4------------x--2-------x--2----x-----------|
E---------------|----------------x----------x-------x-----------|

Verse:
e----------2----|----------------x----------x-------x-----------|
B--------2---2--|-------------5--x-------3--x-------x----0-----1|
G------2--------|----------6-----x-------4--x-----1-x----1------|
D----0----------|-------6--------x----------x-------x--2--------|
A---------------|---4------------x--2-------x--2----x-----------|
E---------------|----------------x----------x-------x-----------|
don't you know , that i want to be,more than just your friend.....

e----------2----|
B--------2---2--|
G------2--------|
D----0----------|
A---------------|
E---------------|
    holding hands  

e--------------------x|
B------------5-------x|
G---------6----------x|
D------6-------------x|  
A--4-----------------x|
E--------------------x|
 it's fine but i've got, 

e----------x-------x-----------|
B-------3--x-------x----0-----1|
G-------4--x-----1-x----1------|
D----------x-------x--2--------|
A--2-------x--2----x-----------|
E----------x-------x-----------| 
   better   things   on my mind

e----------2--------|
B--------2---2------|
G------2------------|
D----0--------------|
A-------------------|
E-------------------|
           you know 

e-----------------------------x|
B-----------------------5-----x|
G-------------------6---------x|
D---------------6-------------x|  
A-----------4-----------------x|
E-----------------------------x|
   it   could    happen .......

e-------------------x----------x-----------|
B----------------3--x----------x----0-----1|
G----------------4--x-----1----x----1------|
D-------------------x----------x--2--------|
A-----------2-------x--2-------x-----------|
E-------------------x----------x-----------| 
if you only see me in a different   light

e----------------------2-----|---------------------x|
B-------------------2-----2--|---------------5-----x|
G----------------2-----------|-----------6---------x|
D-------------0--------------|-------6-------------x|
A----------------------------|---4-----------------x|
E----------------------------|---------------------x| 
but baby when we fin'lly get    to-gether ........

e---------------x----------x-----------|
B------------3--x----------x----0-----1|
G------------4--x-----1----x----1------|
D---------------x----------x--2--------|
A-------2-------x--2-------x-----------|
E---------------x----------x-----------| 
You will see  that  i was     right 
 
e----------2----|----------------x----------x-------x-----------|
B--------2---2--|-------------5--x-------3--x-------x----0-----1|
G------2--------|----------6-----x-------4--x-----1-x----1------|
D----0----------|-------6--------x----------x-------x--2--------|
A---------------|---4------------x--2-------x--2----x-----------|
E---------------|----------------x----------x-------x-----------|
          say     you   love    me,you know that it could be  nice  

e----------------------2-----|------------------x|
B-------------------2-----2--|---------------5--x|
G----------------2-----------|-----------6------x|
D-------------0--------------|-------6----------x|
A----------------------------|---4--------------x|
E----------------------------|------------------x| 
if you only          say      you   love    me

e--------------x-------x-----------|
B-----------3--x-------x----2------|
G--------4-----x----1--x----1------|
D--------------x-------x--2--------|
A--2-----------x--2----x-----------|
E--------------x-------x-----------| 
  and don't treat me like i was ice

e----------2----|----------------x----------x---------x-------------|
B--------2---2--|-------------5--x-------3--x---------x------2------|
G------2--------|----------6-----x-------4--x-------1-x------1------|
D----0----------|-------6--------x----------x---------x----2--------|
A---------------|---4------------x--2-------x----2----x-------------|
E---------------|----------------x----------x---------x-------------|
            please     love     me,   i'll be yours  and you'll be mine 

e-------------------------2-----|------------------x|
B----------------------2-----2--|---------------5--x|
G-------------------2-----------|-----------6------x|
D----------------0--------------|-------6----------x|
A-------------------------------|---4--------------x|
E-------------------------------|------------------x| 
and if you'd only say you love me        baby 

e-----------------x----------x-----------|
B-------------3---x----------x----2------|
G----------4------x-------1--x----1------|
D-----------------x----------x--2--------|
A------2----------x-----2----x-----------|
E-----------------x----------x-----------| 
things  would   really work out fine 


thank ya every1 
Tap to rate this tab
 
# A B C D E F G H I J K L M N O P Q R S T U V W X Y Z