Mymp - I Think Im Falling tab

=================================================================================================
                                     I Think I'm Falling - MYMP 
=================================================================================================
                                Tabbed/Edited by:  Johnny D. Aringo
                                  Email: johnellen@hotmail.com.au



Tuning: Capo On 4th Fret


Intro/Verse/Chorus:
   B             Eb           C#m             E
e|----3---3-3-------2---2-2-------0---0-0-------2-t-2-2h3-----|
B|----3-t-3-3-------3-t-3-3-------1-t-1-1-------3-a-3-3-------|
G|----0-a-0-0-------0-a-0-0-------0-a-0-0-------2-p-2-2-------|
D|------p-------------p-----------2-p-2-2-----0---------------| 
A|---------------2-------------0------------------------------|
E|-3----------------------------------------------------------|


Bridge:
  C#m          C#m          G#m          G#m
e|----0---0-0------0---0-0-----------------------------|
B|----1-t-1-1------1-t-1-1--------t------------t-------|
G|----2-a-2-2------2-a-2-2------0-a-0-0------0-a-0-0---|
D|----2-p-2-2------2-p-2-2------2-p-2-2------2-p-2-2---| 3x
A|-0------------0---------------2---2-2------2---2-2---|
E|---------------------------0------------0------------|

  C#m          C#m               E
e|----0---0-0------0---0-0----------2-2-2-2-------|
B|----1-t-1-1------1-t-1-1----------3-3-3-3-------|
G|----2-a-2-2------2-a-2-2-------2--2-2-2-2-------|
D|----2-p-2-2------2-p-2-2----0-------------------|
A|-0------------0---------------------------------|
E|------------------------------------------------|

[1ST SOLO]
e-----------7---6--------------6/4--------------|
B--------7-----------------7--------------------|
G-----8-----------------8-----------------------|
D-----------------------------------------------|
A-----------------------------------------------|
E-----------------------------------------------|


[2ND SOLO]

e-------------------------7-6-7------------------|
B----------------------7--------7/9-7------------|
G-------------------6/8--------------------------|
D--------------6--9------------------------------|
A---------6--9-----------------------------------|
E----7--9----------------------------------------|

[3RD SOLO]

e-------------------------------------------------------------------------------|
B-----------------------9/12-12-12-11-11-11-9-9-9-7-7-7-------------------------|
G--------8/11-11--9-8-9--------------------------------9-9-9-8-8-8-6-6-6-4-4-4--|
D----9-11-----------------------------------------------------------------------|
A-------------------------------------------------------------------------------|
E-------------------------------------------------------------------------------|



Lyrics


[Verse 1]
I Wanna tell you baby
That you're the one that Im thinking of
But your heart is still with her
And I think she's the one that you love
I only want you happy
Even if it's not with me
Maybe one day
You'll open up your eyes and you'll see

[Chorus]
That I think I'm falling
Maybe I'm falling for you
Yeah I think I'm falling
Baby I'm falling for you

[Verse 2]
From the first time
You laid your lips on mine
It feels like the smile on my face
Will last till the end of time
But I'm not so sure
You're the one that I should pursue
My mind tells me no
But my heart only says that it's you

[Chorus]
That I think I'm falling
Maybe I'm falling for you
Yeah I think I'm falling
Baby I'm falling for you

Bridge:
Only time will tell
The mystery has yet to unfold
Who's gonna feel love's warmth
And the other left in the cold

[Chorus]
Yet still I'm falling
Maybe I'm falling for you 
Yeah I think I'm falling
Baby I'm falling for you
That I think I'm falling
Maybe I'm falling for you
Yeah I think Im falling
Baby I'm falling for you
Tap to rate this tab
 
# A B C D E F G H I J K L M N O P Q R S T U V W X Y Z