Song name
# A B C D E F G H I J K L M N O P Q R S T U V W X Y Z

Mymp - Only Reminds Me Of You chords

Highlighted       Show chord diagrams
Title : Only Reminds Me of You

        C
e|------3--------------| 
B|-----3---------------|
G|----5----------------| 
D|---5-----------------|
A|--3------------------|
E|---------------------|

           G
e|-------3-------------| 
B|------3--------------|
G|---------------------| 
D|-----5---------------|
A|----5----------------|
E|---3-----------------|

           Am
e|-----0---------------| 
B|------1--------------|
G|----2----------------| 
D|---2-----------------|
A|--0------------------|
E|---------------------|

           F
e|------1--------------| 
B|-------1-------------|
G|---------------------| 
D|----3----------------|
A|---3-----------------|
E|--1------------------|

           Em
e|-------0-------------| 
B|--------0------------|
G|---------0-----------| 
D|----2----------------|
A|---2-----------------|
E|--0------------------|





Verse:

C	   G
I see you, beside me
      Am
It's only a dream
F		
A Vision of what used to be
C	        G
The laughter, the sorrow
Am
Pictures and time
F	
Fading to memories

pre-chorus:
Em	   Am		
How could I ever let you go?
Em        F   	
Is it too late to let you know?

Chorus:
C	G
I try to run from your side
Am
But each place I hide
F     
it only reminds me of you
C	  G  
When i turn out all the lights
Am
Even the night
F
it only reminds me of you

VERSE2: [same as VERSE1]
  I needed my freedom
  This what Iíve thought
  But I was a fool to believe
  My heart lied while you cried
  Rivers of tears
  But I was too blind to see

 REFRAIN2: [same as REFRAIN1]
  Everything weíve been through before
  Now it means so much more
 [Repeat CHORUS]
        [INTRO]
 BRIDGE: [same as REFRAIN]
  So come back to me
  Iím down on my knees
  Boy canít you see
[Repeat REFRAIN2]
    [Repeat CHORUS] x2

 OUTRO: [same as INTRO]


AxD_fruckers

.\|./
AxD_dranreb
Tap to rate this tab
# A B C D E F G H I J K L M N O P Q R S T U V W X Y Z