Song name
# A B C D E F G H I J K L M N O P Q R S T U V W X Y Z

Mymp - Love Moves tab

Song Title: Love Moves (in Mysterious Ways)                         
Band Name: MYMP
Tab by: Keno Ventolero

This file came from my Guitar Pro version of this song. Check it out.

Guitar: (Standard Tuning ~ Capo on 1st Fret)

********
 Intro:
********

     G                         C
     E  E  E  E  Q    E  E     E  E  E  E  E  E  E  E   
E||-------------------------|--------------------------|
B||--------------0----1--3--|--------------3--1--0-----|
G||--------0-----0----------|--------0--------------0--|
D||-----0-----0-------------|-----2-----2--------------|
A||-------------------------|--3-----------------------|
E||--3----------------------|--------------------------|

                                              **********
                                               Verse 1:
                                              **********
  Fadd2                                          G
  Q    E  Q    E  E  E     E  Q.     H           W                 
---------------------0--|--L------------------|-------------------|
---------------1--------|-----1------L--------|--0----------------|
--0-------2-------------|---------------------|--0----------------|
-------3----------3-----|---------------------|-------------------|
------------------------|---------------------|-------------------|
--1---------------------|---------------------|--3----------------|
  C                          F                      F
  E  E  E  E  E  E  E  E     Q.     Q.     E  E     H.           E  E   
--------------------x-----|----------------------|--0------------x-----|
-----------1--------x-----|--1-------------1-----|---------------x-----|
--------0--------0--x-----|---------0---------2--|---------------x-----|
-----2--------2-----x-----|----------------------|---------------x-----|
--3-----------------x-----|----------------------|---------------x-----|
--------------------x--0--|--1-------------------|--1------------x--3--|
  C                       F                        G
  H        E  E  E  E     Q    E  Q    E  E  E     H.           E  E   
-----------------x-----|------------------x-----|---------------------|
--1--------L--1--x-----|--1------------1--x-----|--0------------1-----|
--0--------L-----x-----|----------0-------x-----|------------------0--|
-----------------x-----|-------3----------x-----|---------------------|
--3--------L-----x-----|------------------x-----|---------------------|
-----------------x--0--|--1---------------x--0--|--3------------------|
 
                      **********
                       Verse 2:
                      **********
  G                       G                   C
  H        E  E  E  E     W                   E  E  E  E  E  E  E  E   
-----------x-----x-----|-------------------|--------------------x-----|
--0--------x--1--x-----|--0----------------|-----------1--------x-----|
-----------x--0--x-----|--0----------------|--------0--------0--x-----|
-----------x-----x-----|-------------------|-----2--------2-----x-----|
-----------x--3--x-----|-------------------|--3-----------------x-----|
--3--------x-----x--0--|--3----------------|--------------------x--0--|
  Fadd2                   Fadd2                    Am
  H        E  E  E  E     E  E  E  E  Q    Q       Q    E  Q    E  E  E   
-----------------x-----|------------------------|----------0-------x-----|
--1--------L--1--x-----|--1--------1--0---------|--1------------1--x-----|
--0--------L-----x-----|--0-----2----------0----|-------2----------x-----|
-----------------x-----|-----0------------------|------------------x-----|
-----------------x-----|------------------------|--0---------------x--0--|
--1--------L-----x--1--|--1-----------1---------|------------------x-----|
  Dm7                      G/B                      Am                 G/A
  Q    E  Q    E  E  E     Q    E  E  Q    E  E     Q    E  E  Q    E  E   
----------5-------x-----|-------------3----x-----|-------------0----x-----|
--6------------6--x-----|----------3-------x-----|--1----1----------x--0--|
--7----7----------x-----|-------4----------x-----|----------2-------x--0--|
--0---------------x-----|------------------x-----|------------------x-----|
------------------x--0--|--2---------------x-----|--0---------------x--0--|
------------------x-----|------------------x--0--|------------------x-----|
     Am    Am7            D                      A/C#         B
  E  E  E  H        E     H        E  E  E  E     E  E  E  E  E  E  E  E   
--x-----x--------------|--2--------L-----x-----|-----0--x-----------x-----|
--x--1--x--------------|--------------3--x-----|-----2--x--------4--x-----|
--x--2--x--0-----------|-----------------x-----|-----2--x--------4--x-----|
--x-----x--------------|--0--------L-----x-----|--------x-----------x-----|
--x--0--x--0--------0--|-----------------x--0--|--4-----x--0--2-----x--0--|
--x-----x--------------|-----------------x-----|--------x-----------x-----|


*********
 Chorus:
*********
  E              B/E                              F#m
  Q.     E  Q    Q       Q    E  Q    E  E  E     H        Q    E  E   
---------0--x----2----|--L----2-------2--x-----|-----------0----------|
--0------0--x----4----|--L-------4-------x-----|--0-------------0-----|
--1---------x---------|------------------x-----|-------------------2--|
------------x---------|------------------x-----|----------------------|
------------x---------|------------------x-----|----------------------|
--0---------x----0----|--L---------------x--0--|--2-------------------|
                          G#m                     A2
  H        E  E  E  E     H        E  E  E  E     Q    E  E  E  E  E  E   
-----------0-----x-----|-----------0-----x-----|----------0--------x-----|
--0-----------0--x-----|--0-----------0--x-----|--0-------------0--x-----|
-----------------x-----|-----------------x-----|-------2-----2-----x-----|
-----------------x-----|-----------------x-----|-------------------x-----|
-----------------x-----|-----------------x-----|--0----------------x--0--|
--2--------------x--0--|--4--------------x--0--|-------------------x-----|
  C                     B7                        E              B/E
  H.           E  E     Q    E  E  E  E  E  E     Q.     E  Q    Q     
--0------------x-----|-------------2-----x-----|---------0--x----2----|
--1------------x-----|----------0-----0--x-----|--0------0--x----0----|
---------------x-----|-------2-----------x-----|--1---------x---------|
---------------x-----|-------------------x-----|------------x---------|
--3------------x--0--|--2----------------x--0--|------------x---------|
---------------x-----|-------------------x-----|--0---------x----0----|
                          F#m
  Q    Q    E  Q    E     H        Q    E  E     H        E  E  E  E   
-------2----x--2-------|-----------0----------|-----------0-----x-----|
-------0----x--0-------|--0-------------0-----|--0-----------0--x-----|
------------x----------|-------------------2--|-----------------x-----|
------------x----------|----------------------|-----------------x-----|
------------x----------|----------------------|-----------------x-----|
--0---------x--0----0--|--2-------------------|--2--------------x--0--|
  G#m                     A2                       B
  H        E  E  E  E     Q    E  Q    E  E  E     E  E  E  E  E  E  E  E   
-----------0-----x-----|----------0-------x-----|--------------------x-----|
--0-----------0--x-----|--0------------0--x-----|--------------4-----x-----|
-----------------x-----|-------2----------x-----|-----4-----4-----4--x-----|
-----------------x-----|------------------x-----|--------4-----------x-----|
-----------------x-----|--0---------------x--0--|--2-----------------x--0--|
--4--------------x--0--|------------------x-----|--------------------x-----|
  C#m7                    F#m                      G#m          A2
  H        E  E  E  E     Q    E  Q    E  E  E     Q.     E  E  E  E  E   
--4-----------4--x-----|------------------x-----|---------0--x-----x-----|
--5--------5-----x-----|--0-------0----0--x-----|--0---------x--0--x-----|
--4--------------x-----|------------------x-----|------------x-----x-----|
-----------------x-----|------------------x-----|------------x-----x-----|
--4--------------x-----|------------------x-----|------------x--0--x--0--|
-----------------x--0--|--2----2----------x--0--|--4---------x-----x-----|

  B                                        ^  C#m7                                   
  W                   W                   W                   W                 
-------------------|-------------------|--4----------------|--L----------------|
--4----------------|--L----------------|--5----------------|--L----------------|
--4----------------|--L----------------|--4----------------|--L----------------|
-------------------|-------------------|--6----------------|--L----------------|
--2----------------|--L----------------|--4----------------|--L----------------|
-------------------|-------------------|-------------------|-------------------|
  
  ^ A2                            C           
  W                   H        E  E  E  E   
--0----------------|--L--------x-----x-----|
--0----------------|--L--------x--1--x-----|
--2----------------|--L--------x--0--x-----|
--2----------------|--L--------x-----x-----|
--0----------------|--L--------x--3--x-----|
-------------------|-----------x-----x--0--|


**********
 Verse 3:
**********
  (Do variations of first two verses)                             
  W                                      E  E  E  E  E  E  E  E   
--------------------------------------|--------------------x-----|
--0-----------------------------------|-----------1--------x-----|
--0-----------------------------------|--------0--------0--x-----|
--------------------------------------|-----2--------2-----x-----|
--------------------------------------|--3-----------------x-----|
--3-----------------------------------|--------------------x--0--|

  Q.     Q.     E  E     H.           E  E     H        E  E  E  E   
----------------------|--0------------x-----|-----------------x-----|
--1-------------1-----|---------------x-----|--1--------L--1--x-----|
---------0---------2--|---------------x-----|--0--------L-----x-----|
----------------------|---------------x-----|-----------------x-----|
----------------------|---------------x-----|--3--------L-----x-----|
--1-------------------|--1------------x--3--|-----------------x--0--|

  Q    E  Q    E  E  E     H.           E  E     H        E  E  E  E   
------------------x-----|---------------------|-----------x-----x-----|
--1------------1--x-----|--0------------1-----|--0--------x--1--x-----|
----------0-------x-----|------------------0--|-----------x--0--x-----|
-------3----------x-----|---------------------|-----------x-----x-----|
------------------x-----|---------------------|-----------x--3--x-----|
--1---------------x--0--|--3------------------|--3--------x-----x--0--|


**********
 Verse 2:
**********
  W                   E  E  E  E  E  E  E  E     H        E  E  E  E   
-------------------|--------------------x-----|-----------------x-----|
--0----------------|-----------1--------x-----|--1--------L--1--x-----|
--0----------------|--------0--------0--x-----|--0--------L-----x-----|
-------------------|-----2--------2-----x-----|-----------------x-----|
-------------------|--3-----------------x-----|-----------------x-----|
--3----------------|--------------------x--0--|--1--------L-----x--1--|

  E  E  E  E  Q    Q       Q    E  Q    E  E  E     Q    E  Q    E  E  E   
------------------------|----------0-------x-----|----------5-------x-----|
--1--------1--0---------|--1------------1--x-----|--6------------6--x-----|
--0-----2----------0----|-------2----------x-----|--7----7----------x-----|
-----0------------------|------------------x-----|--0---------------x-----|
------------------------|--0---------------x--0--|------------------x--0--|
--1-----------1---------|------------------x-----|------------------x-----|

  Q    E  E  Q    E  E     Q    E  E  Q    E  E     E  E  E  H        E   
-------------3----x-----|-------------0----x-----|--x-----x--------------|
----------3-------x-----|--1----1----------x--0--|--x--1--x--------------|
-------4----------x-----|----------2-------x--0--|--x--2--x--0-----------|
------------------x-----|------------------x-----|--x-----x--------------|
--2---------------x-----|--0---------------x--0--|--x--0--x--0--------0--|
------------------x--0--|------------------x-----|--x-----x--------------|

                                                    *********
                                                     Chorus:
                                                    *********
  H        E  E  E  E     E  E  E  E  E  E  E  E     Q.     E  Q    Q     
--2--------L-----x-----|-----0--x-----------x-----|---------0--x----2----|
--------------3--x-----|-----2--x--------4--x-----|--0------0--x----4----|
-----------------x-----|-----2--x--------4--x-----|--1---------x---------|
--0--------L-----x-----|--------x-----------x-----|------------x---------|
-----------------x--0--|--4-----x--0--2-----x--0--|------------x---------|
-----------------x-----|--------x-----------x-----|--0---------x----0----|

  Q    E  Q    E  E  E     H        Q    E  E     H        E  E  E  E   
--L----2-------2--x-----|-----------0----------|-----------0-----x-----|
--L-------4-------x-----|--0-------------0-----|--0-----------0--x-----|
------------------x-----|-------------------2--|-----------------x-----|
------------------x-----|----------------------|-----------------x-----|
------------------x-----|----------------------|-----------------x-----|
--L---------------x--0--|--2-------------------|--2--------------x--0--|

  H        E  E  E  E     Q    E  E  E  E  E  E     H.           E  E   
-----------0-----x-----|----------0--------x-----|--0------------x-----|
--0-----------0--x-----|--0-------------0--x-----|--1------------x-----|
-----------------x-----|-------2-----2-----x-----|---------------x-----|
-----------------x-----|-------------------x-----|---------------x-----|
-----------------x-----|--0----------------x--0--|--3------------x--0--|
--4--------------x--0--|-------------------x-----|---------------x-----|

  Q    E  E  E  E  E  E     Q.     E  Q    Q       Q    Q    E  Q    E   
-------------2-----x-----|---------0--x----2----|-------2----x--2-------|
----------0-----0--x-----|--0------0--x----0----|-------0----x--0-------|
-------2-----------x-----|--1---------x---------|------------x----------|
-------------------x-----|------------x---------|------------x----------|
--2----------------x--0--|------------x---------|------------x----------|
-------------------x-----|--0---------x----0----|--0---------x--0----0--|

  H        Q    E  E     H        E  E  E  E     H        E  E  E  E   
-----------0----------|-----------0-----x-----|-----------0-----x-----|
--0-------------0-----|--0-----------0--x-----|--0-----------0--x-----|
-------------------2--|-----------------x-----|-----------------x-----|
----------------------|-----------------x-----|-----------------x-----|
----------------------|-----------------x-----|-----------------x-----|
--2-------------------|--2--------------x--0--|--4--------------x--0--|

  Q    E  Q    E  E  E     E  E  E  E  E  E  E  E     H        E  E  E  E   
----------0-------x-----|--------------------x-----|--4-----------4--x-----|
--0------------0--x-----|--------------4-----x-----|--5--------5-----x-----|
-------2----------x-----|-----4-----4-----4--x-----|--4--------------x-----|
------------------x-----|--------4-----------x-----|-----------------x-----|
--0---------------x--0--|--2-----------------x--0--|--4--------------x-----|
------------------x-----|--------------------x-----|-----------------x--0--|

  Q    E  Q    E  E  E     Q.     E  E  E  E  E     W                 
------------------x-----|---------0--x-----x-----|-------------------|
--0-------0----0--x-----|--0---------x--0--x-----|--4----------------|
------------------x-----|------------x-----x-----|--4----------------|
------------------x-----|------------x-----x-----|-------------------|
------------------x-----|------------x--0--x--0--|--2----------------|
--2----2----------x--0--|--4---------x-----x-----|-------------------|

                      ^                                         
  W                   W                   H        E  E  E  E   
-------------------|--4----------------|--L--------x-----x-----|
--L----------------|--5----------------|--L--------x--1--x-----|
--L----------------|--4----------------|--L--------x--0--x-----|
-------------------|--6----------------|--L--------x-----x-----|
--L----------------|--4----------------|--L--------x--3--x-----|
-------------------|-------------------|-----------x-----x--0--|

********
 Adlib:
********

  E  E  E  E  Q    E  E     E  E  E  E  E  E  E  E     E  E  E  E  E  E  E  E   
-------------------------|--------------------------|-----------------------0--|
--------------0----1--3--|--------------3--1--0-----|--------------------------|
--------0-----0----------|--------0--------------0--|--0--------2-----2--------|
-----0-----0-------------|-----2-----2--------------|--------3-----------------|
-------------------------|--3-----------------------|-----3--------3-----3-----|
--3----------------------|--------------------------|--1-----------------------|

  E  E  H        E  E     E  E  E  E  E  E  E  E     Q    E  E  Q    E  E   
--L--------------x-----|--------------0--------0--|--1----0----------x-----|
-----1-----------x-----|--------1--3--------3-----|----------1-------x-----|
--------0--------x-----|-----0-----------0--------|------------------x--2--|
-----------------x-----|--------------------------|--0----------0----x-----|
-----------------x--0--|--3-----------------------|------------------x-----|
-----------------x-----|--------------------------|------------------x-----|

                                                  *********
                                                   Bridge:
                                                  *********
                                                    C
  E  E  E  Q.     Q       E  E  E  E  Q    E  E     H        E  E  E  E   
-----------------------|-------------------x-----|--3--------L--3--x-----|
-----------0-----------|--3--1--0----------x-----|--3--------L-----x-----|
--2-----0---------0----|-----------2--0----x-----|-----------------x-----|
-----0-----------------|-------------------x-----|-----------------x-----|
-----------------------|-------------------x-----|--3--------L-----x--0--|
--3--------------------|--3----------------x--0--|-----------------x-----|
  D                       Bb                                C#dim
  H        E  E  E  E     H        Q    E  E     Q    E  E  E  E  E  E   
--------------0--x-----|-----------1----------|-------x-----------x-----|
--1--------L-----x-----|--1-------------1-----|--1----x-----------x-----|
-----------------x-----|----------------------|-------x--------6--x-----|
-----------------x-----|----------------------|-------x--------5--x-----|
--0--------L-----x--0--|--1----------------1--|--1----x--0--4-----x--0--|
-----------------x-----|----------------------|-------x-----------x-----|
  Dm7                    G                      C
  H        Q    E  E     H        Q    E  E     H        Q    E  E   
-----------5----x-----|-----------3----x-----|-----------3----x-----|
--6-------------x-----|--3-------------x-----|--3-------------x-----|
--5-------------x-----|----------------x-----|----------------x-----|
----------------x-----|----------------x-----|----------------x-----|
--5-------------x-----|----------------x-----|--3-------------x-----|
----------------x--0--|--3-------------x--0--|----------------x--0--|

                            ***************
                             Final Chorus:
                            ***************
  C           D              G              D/G
  E  E  E  E  E  E  E  E     Q.     E  Q    Q       Q    E  E  E  E  E  E   
-----3--x--------5--x-----|---------3--x---------|--5----------5-----x-----|
--3-----x-----------x-----|--3------3--x----3----|-------3--------3--x-----|
--------x-----------x-----|--0---------x---------|----------0--------x-----|
--------x-----------x-----|------------x---------|-------------------x-----|
--3-----x--0--5-----x-----|------------x---------|-------------------x-----|
--------x-----------x--0--|--3---------x----3----|--L----------------x--0--|
  Am                                               Bm7
  H        Q    E  E     Q    E  E  E  E  E  E     H        E  E  E  E   
-----------0----------|-------------0-----x-----|-----------2-----x-----|
--1-------------1-----|--1-------1-----1--x-----|--3-----------3--x-----|
----------------------|-------2-----------x-----|-----------------x-----|
----------------------|-------------------x-----|-----------------x-----|
--0----------------0--|--0----------------x--0--|--2--------------x--0--|
----------------------|-------------------x-----|-----------------x-----|
  C                         Eb                    D
  Q    E  E  E  E  E  E     H.           E  E     H        E  E  E  E   
-------------3-----x-----|---------------x-----|-----------5-----x-----|
--3-------3-----3--x-----|--8------------x-----|--7-----------7--x-----|
-------------------x-----|--8------------x-----|--7--------------x-----|
-------2-----------x-----|---------------x-----|--7--------------x-----|
--3----------------x--0--|--6------------x--0--|--5--------------x-----|
-------------------x-----|---------------x-----|-----------------x--0--|
  G                                                Am
  Q.     E  Q    Q       Q    E  E  E  E  E  E     Q    E  E  E  E  E  E   
---------3--x---------|--5----------5-----x-----|-------------0-----------|
--3------3--x----3----|-------3--------3--x-----|--1-------------1--------|
--0---------x---------|----------0--------x-----|----------2--------2-----|
------------x---------|-------------------x-----|-------2--------------2--|
------------x---------|-------------------x-----|--0----------------------|
--3---------x----3----|--L----------------x--0--|-------------------------|
                            Bm7                      C
  Q    E  E  E  E  E  E     Q    E  Q    E  E  E     Q    E  E  E  E  E  E   
-------------0-----x-----|----------2-------x-----|-------------3-----x-----|
--1-------1-----1--x-----|--3------------3--x-----|--3-------3-----3--x-----|
-------2-----------x-----|-------2----------x-----|-------------------x-----|
-------------------x-----|------------------x-----|-------2-----------x-----|
--0----------------x--0--|--2---------------x--0--|--3----------------x--0--|
-------------------x-----|------------------x-----|-------------------x-----|
  D7/Eb                      Em                         Am
  E  E  E  E  E  E  E  E     E  E  E  E  E  E  E  E     Q    E  Q    E  E  E   
--------------------x-----|-----------------3--x-----|----------0-------x-----|
--------------7-----x-----|--3--------3--------x-----|--1-------1----1--x-----|
--------5--------5--x-----|--------0-----0-----x-----|------------------x-----|
-----7-----7--------x-----|-----4--------------x-----|------------------x-----|
--6-----------------x--0--|--------------------x-----|--0----0----------x--0--|
--------------------x-----|--0-----------------x--0--|------------------x-----|
  Bm           C           D
  Q.     E  E  E  E  E     H        E  E  E  E     Q    Q    E  E  E  E   
---------2--x-----x-----|--5--------5-----------|------------5-----x-----|
--3---------x--3--x-----|--7-----------7--------|--7------------7--x-----|
------------x-----x-----|--7--------------------|------------------x-----|
------------x-----x-----|--------------------7--|-------7----------x-----|
--2---------x--3--x--0--|--5--------------5-----|------------------x-----|
------------x-----x-----|-----------------------|------------------x--0--|

********
 Outro:
********
  E  E  E  E  Q    E  E     E  E  E  E  E  E  E  E     Q    E  Q    E  E  E   
-------------------------|--------------------------|---------------------0--|
--0-----------0----1--3--|--------------3--1--0-----|---------------1--------|
--------0-----0----------|--------0--------------0--|--0-------2-------------|
-----0-----0-------------|-----2-----2--------------|-------3----------3-----|
-------------------------|--3-----------------------|------------------------|
--3----------------------|--------------------------|--1---------------------|

  E  E  E  Q    Q.        E  E  E  E  E  E  Q     
--L--------0-----------|--------------0----------|
-----1----------1------|-----------0-----0-------|
--------0--------------|--------2-----------2----|
-----------------------|-----0-------------------|
-----------------------|-------------------------|
-----------------------|--3----------------------|

     NH    NH    NH    NH      NH                           
     E     E     E     Q       Q.        W                  
--<>12--------------------------------|-------------------||
--------<>12--------------------------|-------------------||
--------------<>12--------------------|-------------------||
--------------------<>12--------------|-------------------||
----------------------------<>10------|--L----------------||
--------------------------------------|-------------------||

~ Tab by Keno Ventolero ~

Duration Legend
---------------
W - whole
H - half
Q - quarter
E - 8th
S - 16th
. - note dotted


Tablature Legend
----------------
L - tied note
x - dead note
NH - natural harmonic

~ Tab by Keno Ventolero ~
Tap to rate this tab
# A B C D E F G H I J K L M N O P Q R S T U V W X Y Z