Song name
# A B C D E F G H I J K L M N O P Q R S T U V W X Y Z

Mymp - For All Of My Life chords

Highlighted       Show chord diagrams
For all of My Life  Mymp

intro:
    E                  G#m(4x4400)     Asus2           Am

verse:
    E                  Am              E                Am            E
  Come and lay here beside me.       I tell you how it feel.         Theres a secret

    Am          G#m4x4400) F#m(2x2200) E                Asus2    
  inside me. Im  ready      to          reveal.         To have you close

      G#m                     C#m              F#m     (222222)
   embrace your heart with my love over and    over These are the

     (222222)               Am          (020200)       
   things that I     promise, my promise to you...................

chorus:
   (020200)         E                G#m(4x4400)         Asus2              F#m (2x2200) 
  for all of my....life you are the one I will love you faithfully      forever all of my 

    E                G#m                     Asus2              F#m  
  life  you are the one.Ill give to you my greatest love.  For all of my


second intro:
    life..............wooooh...........yeah..................

Verse II
Let me lay down beside you
There's something you should know
I pray that you decide too
Open your heart and let me show

Enchanted worlds of fairytales
Are wonder land of love
These are things that i'll promise, my promise to you

Repeat Chorus.

bridge:  
    Dsus2            D/E             Dsus2           (222222)
e|--------0-----------2-----2--------------0---------2-pause--2-----2-----|
B|------3------3-t--------3-----3-t------3------3-t--------------------t--|
G|----2----------a-x----2---------a----2----------a--------------------a--|
D|--0--------0---p----2-------2---p--0--------0---p--2-pause-----2-----p--|
A|------------------------------------------------------------------------|
E|------------------------------------------------------------------------|
...life...........................life....................................

e|--------2----------0-----4---------2-----------------2--------0---|
B|--------3--------3-------2-tap-----2-2-----2-pause-----2------1---|
G|------2--------2---------------------2-----2-pause-------x-x--2---|
D|----0--------2----------------------------------------------------|
A|--0--------0---------0-4---------2----------------------------0---|
E|-------------------------------0---------0-2-pause----------------|
  heart............................these are...........promise.....

chorus:

ending :
                                      Am
ill give to you my greatest love......
                                 E
for all of my life..............
Tap to rate this tab
# A B C D E F G H I J K L M N O P Q R S T U V W X Y Z