Song name
# A B C D E F G H I J K L M N O P Q R S T U V W X Y Z

Mymp - I Think Im Falling tab

Tabbed by: Francis "Anses-Anseng" Fajilan
Title: I Think I'm Falling by MYMP
(pero ang title talaga nito is Falling by Keahiwai.. Ewan ko kung bakit sa MYMP daw 
'tong kantang 'to. Nakigaya lang ako kaya dito ko nilagay sa MYMP tabs HAHAHA..)

Intro:

        B                D#m/Ebm          C#m                E
e-----------------------------------------------------------------------|
B-----7--T--7--7-------7--T--7--7-------5--T--5--5-------------9--9--9--|
G-----8--A--8--8-------8--A--8--8-------6--A--6--6----------9-----9--9--| (4x)
D--------P-----9----------P-----8----------P-----6-------9-----------9--|
A-----------9-------6--------6-------4--------4-------7-----------7-----|
E--7--------------------------------------------------------------------|

Guitar 2 - Riff 1

e-------------------------|
B--------9--7--------7s5--|
G-----9-----------9-------| (2x)
D--9-----------9----------|
A-------------------------|
E-------------------------|

Verse 1:

B-D#m/Ebm-C#m-E (8x)

Chorus:

B-D#m/Ebm-C#m-E (4x)
with riff 1 (2x)
and riff 2

Guitar 2 - Riff 1

e-------------------------|
B--------9--7--------7s5--|
G-----9-----------9-------| (2x)
D--9-----------9----------|
A-------------------------|
E-------------------------|

Guitar 2 - Riff 2

e-----------------------6--7--6--7----------|
B-----------------7--9--------------7s9--7--|
G--------6--8--9----------------------------|
D--8--9-------------------------------------|
A-------------------------------------------|
E-------------------------------------------|

Verse 2:

B-D#m/Ebm-C#m-E (8x)

Repeat Chorus (without riff 2)

Bridge:
C#m                             G#m
e----------------------------------------------------------|
B--5--5--T--5--5--5--T--5--5----4--4--T--4--4--4--T--4--4--|
G--6--6--A--6--6--6--A--6--6----4--4--A--4--4--4--A--4--4--|(3x)
D--6-----P-----6-----P-----6----6-----P-----6-----P-----6--|
A--4--------4-----------4-------6--------------------------|
E-------------------------------4--------4-----------4-----|

C#m                             D#m/Ebm
e-------------------------------------------------|
B--5--5--T--5--5--5--T--5--5----7--7--T--7--7--7--|
G--6--6--A--6--6--6--A--6--6----8--8--A--8--8--8--|
D--6-----P-----6-----P-----6----8-----P-----8--8--|
A--4--------4-----------4-------6--------6--------|
E-------------------------------------------------|

Repeat Chorus

Outro:

Guitar 2 - Riff 3

e-------------------7-7-7-6-6-6---------------------------------------|
B--------------------------------9-9-9-7-7-7--------------------------|
G----6-8s9-9-9-8-9---------------------------9-9-9-8-8-8-6-6-6--------|
D--9-----------------------------------------------------------9-9-9--|
A---------------------------------------------------------------------|
E---------------------------------------------------------------------|

e------------------------------------7-7-7--|
B--------------------------7-7-7------------|
G------------------6-8-8s9------------------| ...then fade...
D------------6-8-9-------------9-9-9--------|
A------6-7-9--------------------------------|
E--7-9--------------------------------------|



NOTE: Pakinggan na lang ng mabuti yung kanta tapos diskarte na lang kung paano ang timing..



09/30/13
Tap to rate this tab
# A B C D E F G H I J K L M N O P Q R S T U V W X Y Z