Song name
# A B C D E F G H I J K L M N O P Q R S T U V W X Y Z

Mymp - Baby Dont You Break My Heart chords

Highlighted       Show chord diagrams
Title: Baby Don't You Break My Heart Slow
Artist: M.Y.M.P.
Album: Now (2008)

Tuning: Standard

G   - 320033
C9  - X32033
D2  - X00230
Em7 - X22033


Capo 1st Fret

----BEGIN----

Intro:

   G         Dsus      C9
e|-3-------|-3-2-0-2-|-------------|
B|-3-3----3|---------|-3-3---3---3-|
G|-0----0--|---------|-0---0---0---|
D|-0-------|-0-0-0-0-|-2-----------|
A|-2-2-----|---------|-3-----------|
E|-3-------|---------|-------------|


Verse:

G                       C9
I like the way you wanted me
       Em7                D2
Every night for so long baby
G                         C9
I like the way you needed me
       Em7                D2
Every time things got rocky


Pre-chorus:

   G     Em7   D2
e|---3-|---2-|-0-|
B|---3-|---3-|-3-|
G|-----|-----|-2-|
D|-----|-----|-0-|
A|-----|-2---|---|
E|-3---|-----|---|

                   I was believing in you

   G     Em7   D2
e|---3-|---2-|-0-|
B|---3-|---3-|-3-|
G|-----|-----|-2-|
D|-----|-----|-0-|
A|-----|-2---|---|
E|-3---|-----|---|

                    Was I mistaken
         C9
Do you say
                    D2          
Do you say what you mean
Em7                        D2
   I want our love to last forever


Chorus:
         G
But I'd rather you be mean
Em7
Than love and lie
     C9
I'd rather hear the truth
D2
And have to say goodbye
     G
I'd rather take a blow
Em7
At least then I would know
     C9            D2              G
But baby don't you break my heart slow



Pre-verse (Intro):

   G         Dsus      C9
e|-3-------|-3-2-0-2-|-------------|
B|-3-3----3|---------|-3-3---3---3-|
G|-0----0--|---------|-0---0---0---|
D|-0-------|-0-0-0-0-|-2-----------|
A|-2-2-----|---------|-3-----------|
E|-3-------|---------|-------------|


Verse 2(same as verse 1):
G                        C9
I like the way you'd hold me
       Em7              D2
Every night for so long baby
G                        C9
I like the way you'd say my name
                       Em7
In the middle of the night
                  D2
While you were sleeping


Pre-chorus:

   G     Em7   D2
e|---3-|---2-|-0-|
B|---3-|---3-|-3-|
G|-----|-----|-2-|
D|-----|-----|-0-|
A|-----|-2---|---|
E|-3---|-----|---|

                   I was believing in you

   G     Em7   D2
e|---3-|---2-|-0-|
B|---3-|---3-|-3-|
G|-----|-----|-2-|
D|-----|-----|-0-|
A|-----|-2---|---|
E|-3---|-----|---|

                   Was I mistaken
         C9
Do you mean
                    D2          
Do you mean what you say
Em7                                 D2
   When you say our love could last forever



Chorus:
         G
Well I'd rather you be mean
Em7
Than love and lie
     C9
I'd rather hear the truth
D2
And have to say goodbye
     G
I'd rather take a blow
Em7
At least then I would know
     C9            D2              G
But baby don't you break my heart slow


Bridge:
Em7                       D2
You would run around and lead me on forever
C9                         D2
While I wait at home still thinking we're together
  C9                          D2
I wanted our love to last forever


Adlib: G-Em7-C9-D


Pre-chorus:

   G     Em7   D2
e|---3-|---2-|-0-|
B|---3-|---3-|-3-|
G|-----|-----|-2-|
D|-----|-----|-0-|
A|-----|-2---|---|
E|-3---|-----|---|

                   I was believing in you

   G     Em7   D2
e|---3-|---2-|-0-|
B|---3-|---3-|-3-|
G|-----|-----|-2-|
D|-----|-----|-0-|
A|-----|-2---|---|
E|-3---|-----|---|


   G         Dsus      C9
e|-3-------|-3-2-0-2-|-------------|
B|-3-3----3|---------|-3-3---3---3-|
G|-0----0--|---------|-0---0---0---|
D|-0-------|-0-0-0-0-|-2-----------|
A|-2-2-----|---------|-3-----------|
E|-3-------|---------|-------------|


Chorus:

    G
I'd rather you be mean
Em7
Than love and lie
     C9
I'd rather hear the truth
D2
And have to say goodbye
     G
I'd rather take a blow
Em7
At least then I would know
     C9            D2              G     Em7
But baby don't you break my heart slow

     C9                       
I'd rather hear the truth
     D2
And have to say goodbye
     G
I'd rather take a blow
Em7
At least then I would know
    C9              D2             G   
But baby don't you break my heart slow
    C9              D2             G
But baby don't you break my heart slow


Outro/Coda:

   G         Dsus      C9            G
e|-3-------|-3-2-0-2-|-------------|-3-|
B|-3-3----3|---------|-3-3---3---3-|-3-|
G|-0----0--|---------|-0---0---0---|-0-|
D|-0-------|-0-0-0-0-|-2-----------|-0-|
A|-2-2-----|---------|-3-----------|-2-|
E|-3-------|---------|-------------|-3-|


----END----
Tap to rate this tab
 
# A B C D E F G H I J K L M N O P Q R S T U V W X Y Z