Guitaretab - guitar tabs
Song name
# A B C D E F G H I J K L M N O P Q R S T U V W X Y Z

Mymp - First Believe tab

FIRST BELIEVE
HOKU

Covered by MYMP

johnsantos_17@yahoo.com

Standard Tuning	(EADGBE)
Capo on 4th fret

Verse:

E----3-----3---3----3------|
B----3-----3---3--3-3------|
G--------0--------0--------|
D--------------------------|
A------2-------3--3--------|
E--3-----------------------|

E-------0-------0-----3---3------3--------------------|
B-------3---2---2-----3---3------3--------------------|
G-----0-----------------0------0----------------------|
D----0--------2---------------------------------------|
A--2--------0---------3------3---3--------------------|
E-----------------------------------------------------|

Chorus:
[ Tab from: http://www.guitaretab.com/m/mymp/49609.html ]
E----3------3-----3------3-|
B----3------3-----3------3-|
G---------0------------0---|
D--------------------------|
A---------------3----3-----|
E--3----3------------------|

E----3-----3---3---3--------|
B----3-----3---3---3--------|
G--------0------------------|
D---------------------------|
A------2-------3--3---------|
E--3------------------------|

E----------------------------|
B--0-------3-----------------|
G--0---2---0-----------------|
D--2---0---2-----------------|
A--2---0---3-----------------|
E--0---2---------------------|

ADLIB:

E----------------------------|
B--3---3---3-----------------|
G--0---2---0-----------------|
D--0---0---2-----------------|
A--2---0---3-----------------|
E--0---2---------------------|

=====w&_17=====
Related for First Believe tab