Song name
# A B C D E F G H I J K L M N O P Q R S T U V W X Y Z

Mymp - Would You Be My Girlfriend tab

e2ng version eh ung s vcd concert album ng mymp n "Especially For You"...
ung riffs lng nnd2 pti ung solo...

Legends:
/ - slide up
\ - slide down
h - hammer on
p - pull off
b - bend
pb - prebend
v - vibrato


a. e|--------|  b.e|-------------------------|  c. e|---------------------|
   B|--3h5b--|    B|--12b-12b-12b-12p11p10v--|     B|--11h12-12b-12b-12v--|
   G|--------|    G|-------------------------|     G|---------------------|
   D|--------|    D|-------------------------|     D|---------------------|
   A|--------|    A|-------------------------|     A|---------------------|
   E|--------|    E|-------------------------|     E|---------------------|

d. e|-----------------|  e. e|-----------|
   B|-----------------|     B|-----3-----|
   G|--4b-4p3p2h3-2v--|     G|--5b---5v--|
   D|-----------------|     D|-----------|
   A|-----------------|     A|-----------|
   E|-----------------|     E|-----------|


f. e|-------------|   g. e|---------------------|  h. e|-------|
   B|--5b--5b-5b--|      B|--12b-12p11p10--12v--|     B|--7-7--|
   G|-------------|      G|---------------------|     G|--7-7--|
   D|-------------|      D|---------------------|     D|-------|
   A|-------------|      A|---------------------|     A|-------|
   E|-------------|      E|---------------------|     E|-------|

i. e|-------|
   B|-11h12-|
   G|-------|
   D|-------|
   A|-------|
   E|-------|


intro:

e|----------------------------------------|
B|----------------------------------------|
G|---4b--4p3p2h3--2v--4b-4b--4p3p2-2h3h4--|
D|----------------------------------------|
A|----------------------------------------|
E|----------------------------------------|

Hey girl can i have your number?
                                 (a.)
Hey girl can i call you tonight?

Do i come on too strong for you?

I hope you won't turn me down

[Refrain]

I hope you're not surprised

That i made the first move

I hope you realize

That i'm into you

I just wanna ask you

[Chorus]
                             (b.)
Would you be my girlfriend?
                       (c.)
Would you be my girl?

I'm not typical, i'm straightforward

I'm just practical and you know it
                            (d.)
I hope you're not offended
                            (e.)
Would you be my girlfriend?
                       (d.)
Would you be my girl?

I'm not typical, i'm straightforward

I'm just practical and you know it

I hope you're not offended


Hey there will you look this way

I like to see you every night

Hey there don't be afraid

Hey girl I just like to be yours

[Repeat Refrain]

[Chorus]
                             (d.)
Would you be my girlfriend?
                       (f.)
Would you be my girl?

I'm not typical, i'm straightforward

I'm just practical and you know it
                            (g.)
I hope you're not offended
                            (d.)
Would you be my girlfriend?
                        (h.)
Would you be my girl?

I'm not typical, i'm straightforward

I'm just practical and you know it

I hope you're not offended


I don't want to bother you

But i like taking chances

So if I do turn you off

I really just don't care

I just want to ask you

[Chorus]
                             (d.)
Would you be my girlfriend?
                       (f.)
Would you be my girl?

I'm not typical, i'm straightforward

I'm just practical and you know it
                            (i.)
I hope you're not offended
                            
Would you be my girlfriend? (Would you be my?)
                        
Would you be my girl? (Would you be my girlfriend?)

I'm not typical, i'm straightforward

I'm just practical and you know it

I hope you're not offended

[Solo]

e|-------------------------------------3--3--3--3--3--------|
B|-----------------------------------2--2--2--2--2-----4b-4-|
G|--4b-4v--4p3h4--4b-4p3p2h3-4b-2v----3--3--3--3--3---------|
D|----------------------------------------------------------|
A|----------------------------------------------------------|
E|----------------------------------------------------------|

e|------------------------------------------------|
B|------------------------------------7-7-6-6-5-6-|
G|--3\2/5--5h6h7v---6b-6b--7p6p5h6-7b-------------|
D|------------------------------------------------|
A|------------------------------------------------|
E|------------------------------------------------|

e|--------------------------------------------------|
B|--12b-pb12-pb12-pb12-pb12--12p11-12p11-12-12-12v--|
G|--------------------------------------------------|
D|--------------------------------------------------|
A|--------------------------------------------------|
E|--------------------------------------------------|

e|--13b--12-14-12-14-----------------------------------------|
B|--------------------13-15-13-15--12-14-12-14-----13----13--|
G|----------------------------------------------12----11-----|
D|-----------------------------------------------------------|
A|-----------------------------------------------------------|
E|-----------------------------------------------------------|

e|---------------------------------------------------------------|
B|----------12/14-14-12-14-12-14-12------------------------------|
G|--11b-11b-------------------------13b-13b-15b-15p14b-14b--15v--|
D|---------------------------------------------------------------|
A|---------------------------------------------------------------|
E|---------------------------------------------------------------|
Tap to rate this tab
 
# A B C D E F G H I J K L M N O P Q R S T U V W X Y Z