Song name
# A B C D E F G H I J K L M N O P Q R S T U V W X Y Z

Mymp - I Think Im Falling tab

hi!ako c dustoy!haha..very nice tab!!

accuracy=100%

1ST SOLO:
e-----------7---6--------------6/4--------------|
B--------7-----------------7--------------------|
G-----8-----------------8-----------------------|
D-----------------------------------------------|
A-----------------------------------------------|
E-----------------------------------------------|


2ND SOLO:

e-------------------------7-6-7------------------|
B----------------------7--------7/9-7------------|
G-------------------6/8--------------------------|
D--------------6--9------------------------------|
A---------6--9-----------------------------------|
E----7--9----------------------------------------|

3RD SOLO:

e-------------------------------------------------------------------------------|
B-----------------------9/12-12-12-11-11-11-9-9-9-7-7-7-------------------------|
G--------8/11-11--9-8-9--------------------------------9-9-9-8-8-8-6-6-6-4-4-4--|
D----9-11-----------------------------------------------------------------------|
A-------------------------------------------------------------------------------|
E-------------------------------------------------------------------------------|
Tap to rate this tab
# A B C D E F G H I J K L M N O P Q R S T U V W X Y Z