Song name
# A B C D E F G H I J K L M N O P Q R S T U V W X Y Z

Mymp - Love Stood Still tab

e---3--3----3--------3---3---3---------3----3---3---------3-----------------|
b---3--3------3------3---3-----3-------3----3-----3---------3---------------|
g--------------------------------------------------------------0------------|
d------------------------------------------------------0--------------------|
a--------0---------2-----2----------3-------3-------------------------------|
E-3-------------------------------------------------------------------------|

e-2--3-5--5---10-9--5--5s7--------------------------------------------------|
b----------------------------3--3h5--7-8--10-10--14--15--17-----------------|
g---------------------------------------------------------------------------|
d---------------------------------------------------------------------------|
a---------------------------------------------------------------------------|
E---------------------------------------------------------------------------|
Tap to rate this tab
 
# A B C D E F G H I J K L M N O P Q R S T U V W X Y Z