Mynameis - Rahasia Hati tab

From barai :)

Band: Mynameis
Song: Rahasia Hati
*=palm mute
Standard tuning
http://www.myspace.com/mynameismelodramaticfools

Intro:
|----------------------|
|----------------------|
|---------------9-7-5--|
|--99-9-10-9-99-X-X-X--|  X8
|--77-7--7-7-77-7-5-3--|
|----------------------|

Verse:
|--------------------------------------------------------------------|
|--------------------------------------------------------------------|
|--------------------------------------------------------------------|
|--999999999999999944444444444444445555555555555555------------------|  X2
|--7777777777777777222222222222222233333333333333335555555544444444--|
|--------------------------------------------------3333333322222222--|
          E               B               C            G      F#

Chorus:
|--------------------------------------------------------------------|
|--------------------------------------------------------------------|
|--------------------------------------------------------------------|
|--55555555555555557777777777777777----------------------------------|
|--3333333333333333555555555555555555555555444444442222222222222222--|
|----------------------------------33333333222222220000000000000000--|
          C               D            G       F#         E

|------------------------------------|
|------------------------------------|
|------------------------------------|
|--55555555555555557777777777777777--|
|--33333333333333335555555555555555--|
|------------------------------------|

Repeat intro X4
Repeat verse X2
Repeat chorus

Bridge:
|------------------------------------------------------------|
|------------------------------------------------------------|
|------------------------------------------------------------|
|------------------5555555555555555--------------------------|  X2
|--222222222222222233333333333333335555555555555555--44--44--|
|--0000000000000000----------------3333333333333333--22--22--|
                                                     **  **

Solo:
|------------------------------------------------------------|
|--------8~-7~---7-8-10-12-7------------7-8----7-8-8-10-7~---|
|-----7-9-----9~----------------7-9--7-9----7-9--------------|
|--7-9-----------------------7-9-----------------------------|
|------------------------------------------------------------|
|------------------------------------------------------------|

|------------------------------------------------------------|
|--8-7---8-7----7-----7--------------------------------------|
|------9-----9----9-7---9-7--9-7----9-7----------------------|
|--------------------------------10-----10-9~-9h10-7---------|
|------------------------------------------------------------|
|------------------------------------------------------------|

Repeat verse X2
Repeat chorus
Repeat intro X4

2nd Solo
|----------------------------------------------------------------------------|
|--8-7---7-----------------------------------------8-8-10-12-10-8-7~-7h8-7~--|
|------9---7-7h9------------7-9-7--------------7-9---------------------------|
|----------------9~-9-10-10-------10-9-9h10-7--------------------------------|
|----------------------------------------------------------------------------|
|----------------------------------------------------------------------------|

|----------------------------|
|--------7-8-8-7-8-8-10-10^--|
|--7-9-9---------------------|
|----------------------------|
|----------------------------|
|----------------------------|

Outro:
|------------------------------------------------------------------------|
|--8888878888888788-3333323333333233-5555535555555355--------------------|
|--9999999999999999-4444444444444444-5555555555555555-44444544-22222422--|
|-----------------------------------------------------55555555-44444444--|  X3
|------------------------------------------------------------------------|
|------------------------------------------------------------------------|
   ** ** * ** ** *  ** ** * ** ** *  ** ** * ** ** *  ** ** *  ** ** *

|-------------|
|--88888788~--|
|--99999999~--|
|-------------|
|-------------|
|-------------|
   ** ** *

Tammat :D
Tap to rate this tab
 
# A B C D E F G H I J K L M N O P Q R S T U V W X Y Z