Song name
# A B C D E F G H I J K L M N O P Q R S T U V W X Y Z

Mystery Jets - The Tale tab

Brill song but not too many people have put it up on
tinternet an that! look for it on myyspace, and theres one
vid on youtube. anyways this is pretty much correct but neeeds
the piano etc. so yheeah this is it


Intro and verse:
|----------------------------------------------------|
|------6-6--6-6---6-6--6-6----6-6---6-6--------------|
|------7-7--7-7---7-7--7-7----7-7---7-7--------------|
|---8------8-----7-----7-----------------------------|
|------------------------------8------8--------------|
|----------------------------------------------------|


Breakdown/chorus:

|-----------------------------------------------------|
|--------6------------6------------6----------6-------|
|------7---7-------7----7------7---7- 6-7-9-----------|
|--12----------10-----------8-------------------------|
|-----------------------------------------------------|
|-----------------------------------------------------|

Yeah thats it really simple really good
Tap to rate this tab
# A B C D E F G H I J K L M N O P Q R S T U V W X Y Z