Song name
# A B C D E F G H I J K L M N O P Q R S T U V W X Y Z

Mystery Jets - Radlands tab

This is my very first tab. It's pretty accurate as far as I know.
Listen to the song to get the rhythm.


NO CAPO

E--------------------------------------------------------|
B--------------------------------------------------------|
G--10--10--10--10--10----9--9--9--9--9----3--3--3--3--3--|
D--------------------------------------------------------|
A--------------------------------------------------------|
E-10--10--10--10--10----8--8--8--8--8----3--3--3--3--3---|

E-------------------------------------------------------|
B-------------------------------------------------------|
G--9--9--9--9--9----7--7--7--7--7----10--10--10--10--10-|
D-------------------------------------------------------|
A-------------------------------------------------------|
E-8--8--8--8--8----6--6--6--6--6----10--10--10--10--10--|

E-------------------------------------------------------|
B-------------------------------------------------------|
G--14--14--14--14--14----7--7--7--7--7----7--7--7--7--7-|
D-------------------------------------------------------|
A-------------------------------------------------------|
E-13--13--13--13--13----6--6--6--6--6----6--6--6--6--6--|


It's pretty much the same throughout the first verse.
Tap to rate this tab
# A B C D E F G H I J K L M N O P Q R S T U V W X Y Z