Song name
# A B C D E F G H I J K L M N O P Q R S T U V W X Y Z

Mystery Jets - You Cant Fool Me Dennis tab

----------------------------------------------------------------------------
			 Mystery Jets - You Cant Fool Me Dennis  
mysteryjets.com

Tabbed by: James Garside
Email: jimbo_garside80@hotmail.com

Tuning: standard

chords

A7 - 57x675
E - x79997
Bm - x24432
G - 355433
A - 577655
C#m - x46654
D - xx0232



intro

    A7                     E       A7                          E

e|-----5---5------5---5----7-7-7-------------------------------7-7-7-7-------|
B|---7---7----7-7---7------9-9-9------5--7----5------5---7-----9-9-9-9-------|
G|-------------------------9-9-9---66---6--66----666---6---66--9-9-9-9-------|
D|---------------------------------------------------------------------------|
A|---------------------------------------------------------------------------|
E|---------------------------------------------------------------------------|

verse 1

Bm            G         A
You can do anything you want

C#m                       GGG AAA
As long as it makes sense

Bm            G         A
You can do anything you want

   C#m                   GGG AAA
As long as it makes sense


Bridge

D                     Bm
What a long haul it's been

   C#m             G
My old and trusted friend

C#m                   D
Don't think I'm being mean

C#m                       D
Just can't find a gift to send


D                      D
You didn't portray a sign

      C#m             G
Not a tremble of the limb

C#m              D
In life were all duffels chum

C#m            D             C#m D
Of all wisdom this is the sum


Chorus

    A             G
You can't fool me Dennis

    A             G
You can't fool me Dennis

  


         A              G               A             G
   you cant fool me   dennis     you cant fool me   dennis

e|-----5-7-5-7--------3-5-3-5--------5-7-5-7--------3-5-3-5------------------|
B|-----5-5-5-5--------3-3-3-3--------5-5-5-5--------3-3-3-3------------------|
G|-----6-6-6-6--------4-4-4-4--------6-6-6-6--------4-4-4-4------------------|
D|-----x-x-x-x--------x-x-x-x--------x-x-x-x--------x-x-x-x------------------|
A|-----7-7-7-7--------5-5-5-5--------7-7-7-7--------5-5-5-5------------------|
E|-----5-5-5-5--------3-3-3-3--------5-5-5-5--------3-3-3-3------------------

short instrumental section before second verse is something like Bm to E repeated.


Verse 2

Bm            G         A
You can do anything you want

   C#m                   GGG AAA
As long as it makes sense

Bm             G         A
You can do anything you want

C#m                       GGG AAA
As long as it makes sense


Bridge 2

D                    Bm
Remember those barmy days

C#m                   G
Through a rose-tinted haze

C#m                 
Pal, you weren't a cypher

D             
Pal, you were a man!

C#m               D
All the students drove a van


D                          Bm
Well, it always pays to be brave

         C#m           G
From the cradle to the grave

C#m             D
When the cat be friended the mouse

C#m                     D         C#m D
There wasn't a dry eye in the house


chorus 2

   A             G
You can't fool me Dennis

    A             G
You can't fool me Dennis

    A             G
You can't fool me Dennis

        A             G
No, you can't fool me Dennis



The rest of the song is pretty much the verse chords

End on D

Enjoy








| /  slide up
| \  slide down
| h  hammer-on
| p  pull-off
| ~  vibrato
| +  harmonic
| x  Mute note
===============================================================================
Tap to rate this tab
 
# A B C D E F G H I J K L M N O P Q R S T U V W X Y Z