Song name
# A B C D E F G H I J K L M N O P Q R S T U V W X Y Z

Mystic Prophecy - Sins And Sorrows tab

Tune to D Standard:

D,G,C,F,A,D

Legend : * - Palm Mute
        /\ - Slides
         h - Hammer On
         p - Pull Off
        () - Ring Out

Hey all. I know majority of this tab is definitely correct, but I'm not 100% sure about one
or two riffs. Corrections are welcome, as they'll help me to create a more accurate tab. 
anything I write underneath a tab line is a note regarding how that riff is played.

Play whole song with distortion.

D:--------------------------------|--------------------------------------|
A:--------------------------------|--------------------------------------|
F:--------------------------------|--------------------------------------|
C:--------------------------------|--------------------------------------|
G:-------------2-2-2-2-2-2-2-2-2-2|--------------------------------------|
D:-0-0-0-0-0-0-0-0-0-0-0-0-0-0-0-0|--------------------------------------|
   * * * * * * * * * * * * * * * *
Note : With the open palm mute, make the first 2 or 3 really light, then make them 
and heavier just as you're getting onto the E5. Listen to the song if you need to.

D:--------------------------------|--------------------------------------|
A:--------------------------------|--------------------------------------|
F:--------------------------------|--------------------------------------|
C:-2-3-(2)---5-3-2-(0)---0-2-3-(2)|---2-----2---------2-2-2--------------| X2
G:-2-3-(2)---5-3-2-(0)---0-2-3-(2)|---2-----2---------2-2-2--------------|
D:--------------------------------|-0---0-0---0-0-0-0--------------------|
                                    *   * *   * * * *


D:--------------------------------|--------------------------------------|
A:--------------------------------|--------------------------------------|
F:--------------------------------|--------------------------------------|
C:--------------------------------|--------------------------------------|
G:---------7-----8---7---5--------|-7---8---10-----7h8p7---8h10p8---5h7--|
D:-0-0-0-0---0-0---0---0---0-000--|---0---0----0-0-------0--------0------|
   * * * *   * *   *   *   * ***      *   *    * *       *        *


D:--------------------------------|---------------------------------------|
A:--------------------------------|---------------------------------------|
F:--------------------------------|---------------------------------------|
C:--------------------------------|----------------7h8p7---5h7p5----3h5p3-|
G:---------7-----8---7---5--------|-7---8---10----------------------------|
D:-0-0-0-0---0-0---0---0---0-000--|---0---0----0-0-------0--------0-------|
   * * * *   * *   *   *   * ***      *   *    * *       *        *


D:--------------------------------|--------------------------------------|
A:--------------------------------|--------------------------------------|
F:--------------------------------|--------------------------------------|
C:--------------------------------|--------------------------------------|
G:---------7-----8---7---5--------|-7---8---10-----7h8p7---8h10p8---5h7--|
D:-0-0-0-0---0-0---0---0---0-000--|---0---0----0-0-------0--------0------|
   * * * *   * *   *   *   * ***      *   *    * *       *        *


D:--------------------------------|---------------------------------------|
A:--------------------------------|---------------------------------------|
F:--------------------------------|---------------------------------------|
C:--------------------------------|----------------7h8p7---5h7p5----3h5p3-|
G:---------7-----8---7---5--------|-7---8---10----------------------------|
D:-0-0-0-0---0-0---0---0---0-000--|---0---0----0-0-------0--------0-------|
   * * * *   * *   *   *   * ***      *   *    * *       *        *


D:---------------------------------|
A:---------------------------------|
F:---------------------------------|
C:---------------------------------| Repeat, going into verse
G:-2-----3-----2-------------------|
D:-0-0-0-1-0-0-0-0-0-0-0-0-0-0-000-|
     * *   * *   * * * * * * * ***


That's it. This is actually my first tab, so don't judge it too hard. Rememer, 
for corrections are welcome. You can send a message to my inbox, or add me on:
cannibal_foetus@hotmail.com.
Tap to rate this tab
# A B C D E F G H I J K L M N O P Q R S T U V W X Y Z