Song name
# A B C D E F G H I J K L M N O P Q R S T U V W X Y Z

N-dubz - Strong Again tab

This song uses the same sequence of bar chords.
Em, C, A, C, B.


Tabbed by: Cchamp01 (Chris Rea)
Email: christopherrea68@hotmail.com

Tuning: Standard

 Cos I never ever ever ever, thought that it would ever get better.

e|---7-----------------------8-----------------------------------------|
B|---8-----------------------8-----------------------------------------|
G|---9-----------------------7-----------------------------------------|
D|---9-----------------------10----------------------------------------|
A|---7-----------------------10----------------------------------------|
E|---0-----------------------8-----------------------------------------|

Cos I never ever ever ever, thought that I could face this weather.

e|--5-----------------------8------------------------------7-----------|
B|--5-----------------------8------------------------------7-----------|
G|--6-----------------------7------------------------------8-----------|
D|--7-----------------------10-----------------------------9-----------|
A|--7-----------------------10-----------------------------9-----------|
E|--5-----------------------8------------------------------7-----------|

Just strum along and find your own pattern.
This song is the same throughout.
Any comments/corrections then please e-mail me. (adress at the top of the page)

Thanks!
Tap to rate this tab
# A B C D E F G H I J K L M N O P Q R S T U V W X Y Z