Song name
# A B C D E F G H I J K L M N O P Q R S T U V W X Y Z

Nachtgeschrei - Reise Zu Den Seen tab

Song: Reise zu den Seen
Album: Hoffnungsschimmer
Band: Nachtgeschrei http://www.nachtgeschrei.de/

Intro:

e||---------------------|-------3~------------|
H||-----1---------1-----|------------1p0-1p0--|
G||-------0---------0---|---------------------|   x8 (Harmonica enters at 4)
D||---2---------3-------|---------------------|
A||-0---------3---------|---2-----------------|
E||---------------------|-3---3----3----------|

Verse:

e||---------------------|-------3~------------|
H||-----1---------1-----|------------1p0-1p0--|
G||-------0---------0---|---------------------|   x7
D||---2---------3-------|---------------------|
A||-0---------3---------|---2-----------------|
E||---------------------|-3---3----3----------|

e||---------------------|---------------------|
H||-----1---------1-----|---------------------|
G||-------0---------0---|------0----0-----0---|
D||---2---------3-------|------0----0-----0---|
A||-0---------3---------|---2-----2----2----2-|
E||---------------------|-3-------------------|

Chorus:

e||-------2---------|-------2---------|-------2---------|-----2------------|
H||-----3---3---3---|-----3---3---3---|-----3---3---3---|-------3----------|
G||---2-------2---2-|---2-------2---2-|---2-------2---2-|---2--------------|  x3
D||-0---------------|-----------------|-----------------|------------------|
A||-----------------|-0---------------|-2---------------|-0--------0-2-4-0-|
E||-----------------|-----------------|-----------------|------------------|

Preverse:

e||---------------------|-------3~------------|
H||-----1---------1-----|------------1p0-1p0--|
G||-------0---------0---|---------------------|   x4 (with Harmonica)
D||---2---------3-------|---------------------|
A||-0---------3---------|---2-----------------|
E||---------------------|-3---3----3----------|

Verse:

e||---------------------|-------3~------------|
H||-----1---------1-----|------------1p0-1p0--|
G||-------0---------0---|---------------------|   x7
D||---2---------3-------|---------------------|
A||-0---------3---------|---2-----------------|
E||---------------------|-3---3----3----------|

e||---------------------|---------------------|
H||-----1---------1-----|---------------------|
G||-------0---------0---|------0----0-----0---|
D||---2---------3-------|------0----0-----0---|
A||-0---------3---------|---2-----2----2----2-|
E||---------------------|-3-------------------|

Chorus:

e||-------2---------|-------2---------|-------2---------|-----2------------|
H||-----3---3---3---|-----3---3---3---|-----3---3---3---|-------3----------|
G||---2-------2---2-|---2-------2---2-|---2-------2---2-|---2--------------|  x3
D||-0---------------|-----------------|-----------------|------------------|
A||-----------------|-0---------------|-2---------------|-0--------0-2-4-0-|
E||-----------------|-----------------|-----------------|------------------|


Bridge:

e||------------------|-----------------|
H||------------------|-----------------|
G||-------0------0-2-|---2-0------0~---|  x4
D||---0-2------2-----|-0-----2----2~---|
A||-0--------3-------|---------3~------|
E||------------------|-----------------|

e||-----0--------0---|-----0-------0---|
H||---1-1-1----1-1-1-|---1-1-1---1-1---|
G||-2--------0-------|-----------------|  x7
D||------------------|-3-------2-----2-|
A||------------------|-----------------|
E||------------------|-----------------|

e||-----0--------0---|-----0-----------|-0--------|
H||---1-1-1----1-1-1-|---1-1-1---1p0h1-|---0h1----|
G||-2--------0-------|-----------------|----------|
D||------------------|-3-------2-------|-------2~-|
A||------------------|-----------------|----------|
E||------------------|-----------------|----------|

e||-8~----8--7~---7--|-5~-------5~------|-8~---8--12~--------|---------------------|
H||------------------|------------------|-----------------12-|-12~----12h13p12-----|
G||----9--------7----|----4h5p4-----4h5-|----9---------------|-----------------12~-|  x2
D||-7~-------5~------|-3~---------------|-7~-----------12----|-12~-12--------------|
A||------------------|------------------|---------10~--------|---------------------|
E||------------------|------------------|--------------------|---------------------|

e||--------------|------------------------|----------12~-13-12~-|
H||-12~-12-12-13-|-13-10-10~-------10-----|-10-13-10------------|
G||--------------|-----------10-------10~-|----------12~--------|
D||-12~----12----|-14----10~----10--------|---------------------|
A||--------------|------------------------|---------------------|
E||--------------|------------------------|---------------------|

Chorus (distorted):

e||-----------------|-----------------|-----------------|-----------------|
H||-----------------|-----------------|-----------------|-----------------|
G||-7-7-7-7-7-7-7-7-|-7-7-7-7-7-7-7-7-|-4-4-4-4-4-4-4-4-|-2-2-2-2---------|  x7
D||-7-7-7-7-7-7-7-7-|-7-7-7-7-7-7-7-7-|-4-4-4-4-4-4-4-4-|-2-2-2-2-5-5-5-5-|
A||-5-5-5-5-5-5-5-5-|-4-4-4-4-4-4-4-4-|-2-2-2-2-2-2-2-2-|-0-0-0-0-5-5-5-5-|
E||-----------------|-----------------|-----------------|---------3-3-3-3-|

Outro (distorted/clean):

e||---------------|---------------|---------------|-----------------|---------------||
H||---------------|---------------|---------------|-----------------|---------------||
G||-7~------------|---------------|---------------|-----------------|---------------||
D||-7~------------|---------------|---------------|-----------------|---------------||
A||-5~------------|---------------|---------------|-----------------|---------------||
E||---------------|---------------|---------------|-----------------|---------------||
 ||
e||-----2-0~---2~-|-----2-0~---2~-|-----2-0~---2~-|-----2---0-------|-0~------------||
H||----------3----|----------3----|----------3----|-------3---3-2-3-|-3~------------||
G||---2-----------|---2-----------|---2-----------|---2-------------|-2~------------||
D||-0-------------|---------------|---------------|-----------------|-0~------------||
A||---------------|-0-------------|-2-------------|-0---------------|---------------||
E||---------------|---------------|---------------|-----------------|---------------||
Tap to rate this tab
 
# A B C D E F G H I J K L M N O P Q R S T U V W X Y Z