Song name
# A B C D E F G H I J K L M N O P Q R S T U V W X Y Z

Nachtmystium - Every Last Drop Acoustic tab

-----------------------------------------------------|
Every Last Drop (Acoustic Intro) - Nachtmystium
-----------------------------------------------------|
Tabbed by: Garrett Padilla
Email: soldiers.of.filth@gmail.com

Tuning: DGCFAD (D Standard)

Let all ring
d|-------------------------|-------------------------|
A|-0-----1-----0-----------|-------0-----1-----3-1-0-|
F|---0-----0-----0---2-----|---0-----0-----0---------|
C|-----2-----2-----2---2-0-|-----2-----2-----2-------|
G|-------------------------|-3-----------------------|
D|-------------------------|-------------------------|
   |_|_| |_|_| |_|_| |_|_|   |_|_| |_|_| |_|_| |_|_|
     3     3     3     3       3     3     3     3
Tap to rate this tab
 
# A B C D E F G H I J K L M N O P Q R S T U V W X Y Z