Song name
# A B C D E F G H I J K L M N O P Q R S T U V W X Y Z

Nada Surf - See These Bones tab

(/) Slide Up  (\) Slide Down  (h) Hammer On  (p) Pull Off  (b) Bend (r) Release (v) Vibrato

Capo on 4th Fret
I am positive this is right. Have Fun!!!!!

E|--------------------------------------------------------------------|
B|--------------11------------------------------9---------------------|
G|------11--------------11------11------11-------------11------11-----|
D|--------------------------------------------------------------------|
A|--------------------------------------------------------------------|
E|--11------11------11------11------11------11-----11------11---------|

E|------------------------------------------------------------------------|
B|----------11----------------------9----------------------11-------------|
G|----11----------11----11----11---------11----11----11----------11----11-|
D|------------------------------------------------------------------------|
A|------------------------------------------------------------------------|
E|-11----11----11----11----11----11---11----11----11----11----11----11----|

E|---------------------------------------------------------------------|
B|--------11-----------------9-------------------7-------------------7-|
G|---10--------10---10---8-------8---8---8---8-------8---8---8---8-----|
D|---------------------------------------------------------------------|
A|---------------------------------------------------------------------|
E|-9----9----9----9----7---7---7---7---7---7---7---7---7---7---7---7---|

E|---------|
B|---------|
G|---8---8-|
D|---------|
A|---------|
E|-7---7---|
Tap to rate this tab
# A B C D E F G H I J K L M N O P Q R S T U V W X Y Z