Song name
# A B C D E F G H I J K L M N O P Q R S T U V W X Y Z

Nada Surf - Plan tab

Artist : Nada Surf
Song   : The Plan
Album  : HighLow

Tuning: E Standard
Tablature by: Farzan Karimi (karimifarzan@yahoo.com)

Guitar Intro
e|----------------------------------------------------------|
B|-------------------10-------------------------------------|
G|7-77-7-77-7--101010-x10-10---------------------99912-10-9-|
D|x-xx-x-xx-x---x-x-x-x-x--x-10-1010-10-1010-10--xxx-x--x-x-|
A|5-55-5-55-5---8-8-8-8-8--8--x--x-x--x--x-x--x--77710--8-7-|
E|----------------------------8--8-8--8--8-8--8-------------|


Verse:
e|-------------------------------------------------------|
B|---------------------------------------11--0-0---0-0---|
G|14--1414-14-1414-----------------12-12--x--0-0---0-0---|
D|-x---x-x--x--x-x-10-1010-10-1010--x--x--9--0-0---0-0---|
A|12--1212-12-1212--x--x-x--x--x-x-10-10-----------------|
E|------------------8--8-8--8--8-8-----------------------|


Fill:
e|---------|
B|---------|
G|--11-----|
D|------12-|
A|12--12---|
E|---------|

Bridge:
e|----0-------0-------0-------0-------0-------0-------0-------0---|
B|----0-------0-------0-------0-------0-------0-------0-------0---|
G|5-5-5---5-5-5-------4-------4-------0-------0---4-4-4---4-4-4---|
D|5-5-5---5-5-5---5-5-5---5-5-5---2-2-2---2-2-2---4-4-4---4-4-4---|
A|3-3-3---3-3-3---5-5-5---5-5-5---2-2-2---2-2-2---2-2-2---2-2-2---|
E|----------------3-3-3---3-3-3---0-0-0---0-0-0-------------------|
Tap to rate this tab
# A B C D E F G H I J K L M N O P Q R S T U V W X Y Z