Song name
# A B C D E F G H I J K L M N O P Q R S T U V W X Y Z

Nada Surf - Comes A Time tab

  Song Title: Comes a time
  Written by: Matthew Caws, Daniel Lorca and Ira Elliot
  Performed by: Nada Surf
  From the Album: The Weight is a Gift (2005)
  Transcribed by: Fabien LORTAL
  E-mail address: fabien.lortal_nospam@centraliens.net


  I love this song :)


This is the main theme :

e|-------------------|
B|---7-----7---------|
G|-----0-0---0-0-----| 
D|----7-7---7-7------|
A|--5-----5----------|
E|-------------------|

e|-------------------|
B|---8-----8---------|
G|-----0-0---0-0-----| 
D|----9-9---9-9------|
A|--7-----7----------|
E|-------------------|

e|-------------------|
B|---3-----3---------|
G|-----0-0---0-0-----| 
D|----4-4---4-4------|
A|--2-----2----------|
E|-------------------|


e|-------------------|
B|---5-----5---------|
G|-----0-0---0-0-----| 
D|----5-5---5-5------|
A|--3-----3----------|
E|-------------------|


And the chorus (I'm not sure ...)


e|----------------------------|
B|-3---3---5---5-----3---3---5|
G|-4---0---0---0-----4---0---0| 
D|-5---4---7---5-----5---4---7|
A|-5---5---7---5-----5---5---7|
E|-3---5---5---3-----3---5---5|
Tap to rate this tab
 
# A B C D E F G H I J K L M N O P Q R S T U V W X Y Z