Song name
# A B C D E F G H I J K L M N O P Q R S T U V W X Y Z

Nada Surf - Beautiful Beat tab

Highlighted       Show chord diagrams
Artist: Nada Surf
Title: Beautiful Beat
Album: Lucky
Tabbed by: Necriononguitar
E-Mail(if somethings wrong): tim.rathgen@web.de

Tuning: Half-step down

Announcement: This is not a acoustic version, but it sounds way better when you play it 
a acoustic guitar
 ()  <-- this shows you how to play it easily on the acoustic guitar, too
Kinda alternative playwise... so enjoy

Unusual Chords:
       G*
E---3-----3--/---------------------------|
B---1-----1--/---------------------------|
G---0-----0--/---------------------------|
D---0-----0--/---------------------------|
A---2--or-3--/---------------------------|
E---3-----3--/---------------------------|

Intro:
D,C,G,G*

Verse:
D,C,G,G*


(Alternative way:)
Play these notes Palm-Muted:
   D       C       G      G*
E-------------------------------------|
B-(3)---------------------1-----------|
G--2-------0------(0)-----0-----------|
D--0--x8---2-x8----0------0-----------|
A----------3-------2------2-----------|
E------------------3------3-----------|

U'll see, its sounds cool, too.


Chorus:
D,C,G,G*
same stuff as before

(Alternative way)
No here you have to play a bit louder, so it really sounds as a chorus:

No more Palm-Muting
    D   C   G     The "G" on the first string is the melody.
E---2--(3)--3-------|
B---3---1---3-------|
G---2---0---0-------|
D---0---2---0-------|
A-------3---2-------|
E-----------3-------|

Well thats it, pretty easy, have fun and enjoy your day

Lyrics:
Leave me alone, and there'll be
No one to get hurt
Nobody move and there'll be
Nothin' to disturb
The sum of it all is that you
Don't know where to turn
Despite all your promises you
Don't keep what you learn

Beautiful beat get me out of this mess
Beautiful beat lift me up from distress

Sometimes all i want is another
Drink or another pill
If i could get anything done
Maybe I'd hold still
I'm trying to levitate I'm
Trying to leave the ground
Tryin' to remember when i could
Fix anything with sound

Beautiful beat get me out of this mess
Beautiful beat lift me up from distress

I believe our love can save me
Have to believe that it can
I want to redirect myself with you
Do you understand?

Beautiful beat, get me out of this mess
Beautiful beat, lift me up from distress

(Beautiful beat get me out of this mess
Beautiful beat lift me up from distress)

I believe our love can save me
Have to believe that it can
I gotta reinvent myself for you
Can i be your man?
I believe our love can save me
Have to believe that i can
I wanna redirect myself with you
'Cause you understand

Beautiful beat, get me out of this mess
Beautiful beat, lift me up from distress
Tap to rate this tab
# A B C D E F G H I J K L M N O P Q R S T U V W X Y Z