Song name
# A B C D E F G H I J K L M N O P Q R S T U V W X Y Z

Nada Surf - Weightless tab

Hey,

I know there is a perfectly good tab for this on here but after watching an
 acoustic version I thought I'd post up this more accurate (at least how its
 played by Matthew on the live version I watched) version up. Enjoy :)


Tuning: Standard w/ capo on 3rd fret


Intro/Chorus riff - (tab relative to nut - when strumming this part dont be
 afraid to hit the open strings as well, Im not 100% whether Matthew does
 this but it sounds pretty sweet)

e|------------------------------------------------------------|
b|------------------------------------------------------------|
g|------------------------------------------------------------|
d|---13-13---13--13---8-8---8--8---5-5---5--5---121212-101010-|
a|---13-13---13--13---8-8---8--8---5-5---5--5---121212-101010-|
E|---11-11---11--11---6-6---6--6---3-3---3--3---101010-8 8 8--|


Transition riff into verse and once halfway through intro/chorus - (sliding
 downwards)

|------------------|
|------------------|
|------------------|
|------------------|
|--13----13--------|
|--11----10----2---|


Slower part - (tab relative to capo - if you listen to the record Matthew
 just strums each chord once which is how Ive written it but if playing solo
 acoustic it may work better with additional strums) (pps. Ive also written
 this part relative to the capo instead of the nut just so the chords make
 more sense)

|--3----0----0----2----2----0----|
|--3----0----1----3----3----1----|
|--0----0----0----2----2----0----|
|--0----2----2----0----0----2----|
|--2----2----3----x----x----3----|
|--3----0----x----x----x----3----|

Pretty much do it all over again and thats the song :)

Hope you like my first tab - enjoy!
Tap to rate this tab
# A B C D E F G H I J K L M N O P Q R S T U V W X Y Z