Song name
# A B C D E F G H I J K L M N O P Q R S T U V W X Y Z

Nada Surf - The Film Did Not Go Round tab

Nada Surf - The Film Did Not Go 'Round (Greg Peterson cover)

Transcribed by: Russell Schipilow and Timothy Schmitz

intro/transition riff:
  F#   G# G  A
--2----4--3---5--|
-----------------|
-----------------|
-----------------|
-----------------|
--2----4--3---5--|

 D riff:        G riff:                        A riff:
--------------|------------------------------|-----------------------|
--------8-----|--------8-----------8---------|-------8--------8------|
----------11--|----------11----------11------|---------9--------9----|
--(0)-0-------|--0---------------------------|--0--------------------|
--------------|----10-------10-10-------10---|----0------0-0------0--|
--------------|------------------------------|-----------------------|
*skip the brackets every first time 'round


intro riff

D riff x4

D riff x 4
the shutter clicked, but the film did not go 'round
G riff                                        D riff x2
the shutter clicked, but the film did not go 'round
A riff                                      D riff x2
i touch these strings, but cannot touch the sound


take a train to a bus and then into the air
take a train to a bus and then into the air
if i had wings i'd follow you up there

(transition riff)

girl you know i hate to see you go
i hate to see you go
but the sunlight follows you right down the road

just the thought of you makes me wanna cry
just the thought of you makes me wanna cry
this deep well of tears has just run dry

(transition riff)

you showed me just how easy love could be
you showed me just how silly love could be
but everything you showed me gracefully

everyone's gotta leave their love sometime
everyone's gotta leave their love sometime
if not now, then at the end of your lifetime

(transition riff)

you'll be waiting by my bed i know
you'll be waiting by my bed i know
your last little words will be i love you so

the shutter clicked, but the film did not go 'round
the shutter clicked, but the film did not go 'round
i touch these strings but cannot touch the sound


--------0---------|
------8---8-------|
----9-------11----|
--0------------0--|
------------------|
------------------|
Tap to rate this tab
# A B C D E F G H I J K L M N O P Q R S T U V W X Y Z