Song name
# A B C D E F G H I J K L M N O P Q R S T U V W X Y Z

Nada Surf - Do It Again tab

Here Do It Again by Nada surf, based on the way of how Caws plays it.
In the intro there are some arpegio, but in the rest of the song you can use classic 
think it sounds. Enjoy


CAPO 2

Intro :

    Am
e-----------------------------------------------|
b-----------------------------------------------|
g-------5---------5------------5---------5------|
D----------5---------5------------5---------5---|
A---7----------7-----------7----------7---------|
E-----------------------------------------------|

    C                Em
e-----------------------------------------------|
b---------5----------------3--------------------|
g-------5-----5----------0----------------------|
D-----3-----3----------5------------------------|
A---3----------------5--------------------------|
E-----------------------------------------------|


fakerunners@gmail.com
Tap to rate this tab
# A B C D E F G H I J K L M N O P Q R S T U V W X Y Z