Song name
# A B C D E F G H I J K L M N O P Q R S T U V W X Y Z

Nada Surf - The Film Did Not Go Round tab

Here comes the whole song. The intro and the verse comes from VoltanEchoes
(http://tabs.ultimate-guitar.com/n/nada_surf/the_film_did_not_go_round_tab.htm).
I just added the outro.

Intro/In-Between Verses:
|-2---4---3---5--|
|----------------|
|-2---4---3---5--|
|----------------|
|----------------|
|----------------|

Verse:
|---3-2----3-2------3-2-----3-2-----3-2-----3-2-----3-2-----2-0-----2-0---|
|-------------------------------------------------------------------------|
|-------------------------------------------------------------------------|
|-0----0-0-----0-0------2-2-----2-2-----0-0-----0-0-----0-0-----0-0-------|
|-------------------------------------------------------------------------|
|-------------------------------------------------------------------------|

Outro:
|---2-3-0-3-2--3-|
|----------------|
|----------------|
|-0------------0-|
|----------------|
|----------------|
Tap to rate this tab
 
# A B C D E F G H I J K L M N O P Q R S T U V W X Y Z