Song name
# A B C D E F G H I J K L M N O P Q R S T U V W X Y Z

Nada Surf - Concrete Bed tab

Learned from this video http://www.youtube.com/watch?v=ekg2j0Ejibg&feature=relmfu

intro
 (x12) (x12)(x12)(x6,x6)
e|------------------------------------------|
B|-5h7--0h7--0h7----------------------------|
G|-6----6----6----7-6-----------------------|
D|-7----7----7----7-7-----------------------|
A|-0----6----5----5-5-----------------------|
E|----------------5-5-----------------------|
Verses
  (x12) (x12)(x12)(x12)(x12)(x6,x6)
e|----------------------------------------------------|
B|-5h7--0h7--0h7--0h7--0h7----------------------------|
G|-6----6----6----6----6----7-6-----------------------|
D|-7----7----7----7----7----7-7-----------------------|
A|-0----6----0----6----5----5-5-----------------------|
E|--------------------------5-5-----------------------|

Chorus
e|------------------------------------------|
B|-2---5---5---7----------------------------|
G|-2---6---7---7----------------------------|
D|-4---7---6---9----------------------------|
A|-4---7---7---9----------------------------|
E|------------------------------------------|

Bridge
e|---------------------------------------------------------|
B|-2----5---5---7------------------------------------------|
G|-3----6---7---7------------------------------------------|
D|-4----7---6---9------------------------------------------|
A|-4----7---7---9------------------------------------------|
E|-2---/5---5----------------------------------------------|


Tap to rate this tab
# A B C D E F G H I J K L M N O P Q R S T U V W X Y Z