Song name
# A B C D E F G H I J K L M N O P Q R S T U V W X Y Z

Nada Surf - Blonde On Blonde tab

Blonde on Blonde - Nada Surf

Everything else on here was wrong, fell in love with the song and had to submit correct 
way of playing it.
Figured it out from watching loads of live performances.
Some of the chord names might be off... 90% sure this is correct throughout though


Capo 3rd fret
all in relation to capo


Dmaj7:    x4 4 2 3x
C#:       9(11)(11)(10)9 9
D*:       (10)(12)(12)(11)(10)(10)
C6:       x0(11)9(10)x
Cmaj7:    x(11)(11)9(10)x
A13:      0 9(11)(12)(10)x
C#9b5:    (11)(10)(11)(12)0x



Intro/Main Riff (x4)
e|-----------------------------------------------------------------------------|
B|---------10------------------10------------------10------------------10------|
G|-----9-------------------9-------------------9-------------------9-----------|
D|-11----------11------11------------------------------------------------------|
A|-0-----------0-------0-----------12------11----------11------11----------11--|
E|---------------------------------0-------0-----------0-------0-----------0---|


Verse 1:
e|-----------------------------------------------------------------------------|
B|---------10------------------10------------------10------------------10------|
G|-----9-------------------9-------------------9-------------------9-----------|
D|-11----------11------11-----------11-----11----------11------11-----------11-|
A|-0-----------0-------0------------0------0-----------0-------0------------0--|
E|-----------------------------------------------------------------------------|
                         cats  and    dogs              are coming             d-

e|-----------------------------------------------------------------------------|
B|---------10------------------10------------------10------------------10------|
G|-----9-------------------9-------------------9-------------------9-----------|
D|-----------------------------------------------------------------------------|
A|-11----------11------11----------11------11----------11------11----------11--|
E|-0-----------0-------0-----------0-------0-----------0-------0-----------0---|
  -own

e|-----------------------------------------------------------------------------|
B|---------10------------------10------------------10------------------10------|
G|-----9-------------------9-------------------9-------------------9-----------|
D|-11----------11------11-----------11-----11----------11------11-----------11-|
A|-0-----------0-------0------------0------0-----------0-------0------------0--|
E|-----------------------------------------------------------------------------|
                        14th        street             is       gonna       dr-

e|-----------------------------------------------------------------------------|
B|---------10------------------10------------------10------------------10------|
G|-----9-------------------9-------------------9-------------------9-----------|
D|-----------------------------------------------------------------------------|
A|-11----------11------11----------11------11----------11------11----------11--|
E|-0-----------0-------0-----------0-------0-----------0-------0-----------0---|
  -own

e|-----------------------------------------------------------------------------|
B|---------10------------------10------------------10------------------10------|
G|-----12------------------15------------------15------------------15----------|
D|-11----------11------11----------11-------11----------11------11----------11-|
A|-9-----------9-------9-----------9--------9-----------9-------9-----------9--|
E|-----------------------------------------------------------------------------|
                       every       one      else       rushing             r-

e|-----------------------------------------------------------------------------|
B|-----------------------------------------------------------------------------|
G|---------12------------------12------------------12------------------12------|
D|-----11------------------11------------------11------------------11----------|
A|-10----------10------10----------10------10----------10------10--------------|
E|-11----------11------11----------11------11----------11------11--------------|
  -ound

        D          Dmaj7
ive got blonde on blonde
        E       D
on my portable stereo
     D      Dmaj7
its a lullaby
        E           D
from a giant golden radio


Intro/Main Riff (x2)
e|-----------------------------------------------------------------------------|
B|---------10------------------10------------------10------------------10------|
G|-----9-------------------9-------------------9-------------------9-----------|
D|-11----------11------11------------------------------------------------------|
A|-0-----------0-------0-----------12------11----------11------11----------11--|
E|---------------------------------0-------0-----------0-------0-----------0---|


C6                       Cmaj7
ive got no time i wanna lose
C6                           Cmaj7
to people with something to prove
A13                         C#9b5
what can you do but let them talk
C#                         D*
and make your way down the block


        D          Dmaj7
ive got blonde on blonde
        E       D
on my portable stereo
     D      Dmaj7
its a lullaby
        E            D
from a giant golden radio
      D     Dmaj7
its a lullaby
       E             D
from wonder-womans radio


     D      Dmaj7    E, D
its a lullaby                (x4)


D, Dmaj7, E, D    (repeat until fade)
Tap to rate this tab
# A B C D E F G H I J K L M N O P Q R S T U V W X Y Z