Song name
# A B C D E F G H I J K L M N O P Q R S T U V W X Y Z

Nada Surf - Concrete Bed tab

"Concrete Bed" Intro : Nada Surf
Tabbed by: Andrew Kuryloski (akurylo1@ithaca.edu)

Intro:
-0--0--0--0--0--0--0--0---------2--0--0--2--0--0--2--0--------|
-7--5--5--7--5--5--7--5---------0--0--0--0--0--0--0--0--------|
-6--6--6--6--6--6--6--6---------2--2--2--2--2--2--2--2--------|
-7--7--7--7--7--7--7--7---------1--1--1--1--1--1--1--1--------|
-0--0--0--0--0--0--0--0---------x--x--x--x--x--x--x--x--------|
-x--x--x--x--x--x--x--x---------x--x--x--x--x--x--x--x--------|

      X 2                                                                 X 2

-2--0--0--2--0--0--2--0----------0000000000000000---|
-0--0--0--0--0--0--0--0----------3333333322222222---|
-2--2--2--2--2--2--2--2----------2222222222222222---|
-0--0--0--0--0--0--0--0----------2222222222222222---|
-x--x--x--x--x--x--x--x----------0000000000000000---|
-x--x--x--x--x--x--x--x----------xxxxxxxxxxxxxxxxx--|

      X 2
Tap to rate this tab
# A B C D E F G H I J K L M N O P Q R S T U V W X Y Z