Song name
# A B C D E F G H I J K L M N O P Q R S T U V W X Y Z

Nada Surf - Meow Meow Lullaby tab

Capo on second fret (optional, just sounds a tad bit lower w/o capo)
C major
Standard tuning
I am just a kitten. Hardly Fit my mittens...
E|---------------------------|
B|-1-0-----------1-0-----3---|
G|-------0-0-----------0---3-|    x2
D|-----2-----2-------2-------|
A|-3-------------3-----------|
E|---------------------------|

One day, I'll be, a great big kitty cat...
E|---------------------------|
B|-5----7-----8---7-5-3------|
G|---------------------------|
D|---------------------------|    x2
A|-3-00-5-00--7---5-3-2------|
D|---------------------------|

repeat whole thing until end, which is just the first part repeating

Lyrics (sounds just like guitar)
meow part

I am just a kitten, hardly fit my mittens
Much too small I figure, one day I'll be bigger
One day, I'll be, a great big kitty cat use
Open, windows to go from flat to flat

Meow part

I am just a kitten, hardly fit my mittens
Much too small I figure, one day I'll be bigger
One day, I'll be, all grown up and strong but
Till then, I'll just purr and sing along, and go

meow part
Tap to rate this tab
# A B C D E F G H I J K L M N O P Q R S T U V W X Y Z