Song name
# A B C D E F G H I J K L M N O P Q R S T U V W X Y Z

Naff - Akhirnya Ku Menemukanmu tab

Help us improve GuitareTab! Take a short survey!
Band   : Naff
Song   : Akhirnya ku Menemukanmu
Album  : Isyarat Hati
Tab by : sy412if_g@yahoo.com


|-------------------------------------------------------------------------|
|--------------------------------------------10---10---10-----------------|
|----/7--6-7-6-7-6------/7--6-7-6-7-/9-9---9h--9-9--9-9---7---------------|
|------------------7------------------------------------------------------|
|-------------------------------------------------------------------------|
|-------------------------------------------------------------------------|


|---------------------------10^12-12/14/12--10----------------------------|
|---------------------10^12-----------------------------------------------|
|------------7^9-9/11-----------------------------------------------------|
|--------7^9--------------------------------------------------------------|
|----7^9------------------------------------------------------------------|
|-------------------------------------------------------------------------|
Related for Akhirnya Ku Menemukanmu tab