Song name
# A B C D E F G H I J K L M N O P Q R S T U V W X Y Z

Nailbomb - While You Sleep I Destroy Your World tab

Help us improve GuitareTab! Take a short survey!
While You Sleep I Destroy Your World
Nailbomb

Tabbed by: Florent Campana (campana@clotaire.u-nancy.fr)

for guitar detuned 1 step low
Riff 1
------------------------------------------------------
------------------------------------------------------
------------------------------------------------------
------------------------------------------------------
--5-8-4-7---------------------------------------------
--3-6-2-5---------------------------------------------

riff2
---------------------------------------------------------
---------------------------------------------------------
---------------------------------------------------------
---------------------------------------------------------
55-88-44-77----------------------------------------------
33-66-22-55----------------------------------------------

Then the bass plays
--------------------------------------      Max sing
--------------------------------------"shut that fucked up..."
--------------------------------------
-3-6-2-5-33-66-22-55------------------
Related for While You Sleep I Destroy Your World tab